Song name
# A B C D E F G H I J K L M N O P Q R S T U V W X Y Z

Demon Hunter - No Reason To Exist tab

Heres the solo for the song i posted before....

Db-865------568-|
Ab----865568----|
E---------------|
B---------------|  X4
Gb--------------|
B---------------|

Db-10--5-6----------6-565656565656-|
Ab---------5-6-----6---------------|
E--------------6-7-----------------|
B----------------------------------|
Gb---------------------------------|
B----------------------------------|

Db---------------------------------|
Ab-----7---7-8-7-10-8-7-8-7--------|
E--7-9---9------------------9-7-6--|
B----------------------------------|
Gb---------------------------------|
B----------------------------------|


Db-------------------------7-----|
Ab-----7---7-8-7-8-10-8-10---10--|
E--7-9---9-----------------------|
B--------------------------------|
Gb-------------------------------|
B--------------------------------|

Db----------------------------------------|
Ab-19--1415-910-67-10/15-1415141514151415-|
E--19--1415-910-67-10/15-1415141514151415-|
B-----------------------------------------|
Gb----------------------------------------|
B-----------------------------------------|

thats the whole solo, so with the other tab this should be the whole song.
Special thanks to my guitar teacher for help with this song!!!
Tap to rate this tab
 
# A B C D E F G H I J K L M N O P Q R S T U V W X Y Z