Song name
# A B C D E F G H I J K L M N O P Q R S T U V W X Y Z

Demon Hunter - My Throat Is An Open Grave Acoustic tab

Okay, this is my first tab, so don't kill me cause it's not totally perfect.
-----
Tuning: eBGDAD
-----
Capo on second fret sounds best in my opinion, and all of the notes in the verses are 
(or off the main beat, look it up on Wikipedia)
-----

INTRO:
e|-----------------------------------------------------------------|
B|-----0----------0----------0----------0----------0----------0----|
G|---5---5------5---5------5---5------5---5------5---5------5---5--|
D|-7----------7----------3----------3----------5----------5--------|
A|-----------------------------------------------------------------|
D|-----------------------------------------------------------------|

e|----------------------|
B|------0----------0----|
G|----5---5------5---5--|
D|--4----------4--------|
A|----------------------|
D|----------------------|

VERSE 1:
"We lay face......walls infront of you"

e|------------------------------------------------------------------|
B|------0----------0----------0----------0----------0----------0----|
G|----5---5------5---5------5---5------5---5------5---5------5---5--|
D|--7----------7----------3----------3----------5----------5--------|
A|------------------------------------------------------------------|
D|------------------------------------------------------------------|

e|----------------------|
B|------0----------0----|
G|----5---5------5---5--|
D|--4----------4--------|
A|----------------------|
D|----------------------|

"To the same place......hope fall from your face"
e|------------------------------------------------------------------|
B|------0----------0----------0----------0----------0----------0----|
G|----5---5------5---5------5---5------5---5------5---5------5---5--|
D|--7----------7----------3----------3----------5----------5--------|
A|------------------------------------------------------------------|
D|------------------------------------------------------------------|

e|----------------------|
B|------0----------0----|
G|----5---5------5---5--|
D|--4----------4--------|
A|----------------------|
D|----------------------|

CHORUS:

"This isn't me...."
e|--0-0-0-0-0-0-0--0-0-0-0-0-0-0-x-|
B|--0-0-0-0-0-0-0--0-0-0-0-0-0-0-x-|
G|--0-0-0-0-0-0-0--0-0-0-0-0-0-0-x-|
D|--3-3-3-3-3-3-3-/7-7-7-7-7-7-7-x-|
A|--3-3-3-3-3-3-3-/7-7-7-7-7-7-7-x-|
D|--3-3-3-3-3-3-3-/7-7-7-7-7-7-7-x-|

e|--8--8--8--8--8--8--8-x--8--8--8--8--8--8--8-|
B|-10-10-10-10-10-10-10-x-10-10-10-10-10-10-10-|
G|--0--0--0--0--0--0--0-x--0--0--0--0--0--0--0-|
D|----------------------x----------------------|
A|----------------------x----------------------|
D|----------------------x----------------------|

"All the love..."
e|--0-0-0-0-0-0-0--0-0-0-0-0-0-0-x-|
B|--0-0-0-0-0-0-0--0-0-0-0-0-0-0-x-|
G|--0-0-0-0-0-0-0--0-0-0-0-0-0-0-x-|
D|--3-3-3-3-3-3-3-/7-7-7-7-7-7-7-x-|
A|--3-3-3-3-3-3-3-/7-7-7-7-7-7-7-x-|
D|--3-3-3-3-3-3-3-/7-7-7-7-7-7-7-x-|

e|--8--8--8--8--8--8--8-x--8--8--8--8--8--8--8-|
B|-10-10-10-10-10-10-10-x-10-10-10-10-10-10-10-|
G|--0--0--0--0--0--0--0-x--0--0--0--0--0--0--0-|
D|----------------------x----------------------|
A|----------------------x----------------------|
D|----------------------x----------------------|

"It feels good...."
e|--0-0-0-0-0-0-0--0-0-0-0-0-0-0-x-|
B|--0-0-0-0-0-0-0--0-0-0-0-0-0-0-x-|
G|--0-0-0-0-0-0-0--0-0-0-0-0-0-0-x-|
D|--3-3-3-3-3-3-3-/7-7-7-7-7-7-7-x-|
A|--3-3-3-3-3-3-3-/7-7-7-7-7-7-7-x-|
D|--3-3-3-3-3-3-3-/7-7-7-7-7-7-7-x-|

e|--8--8--8--8--8--8--8-x--8--8--8--8--8--8--8-|
B|-10-10-10-10-10-10-10-x-10-10-10-10-10-10-10-|
G|--0--0--0--0--0--0--0-x--0--0--0--0--0--0--0-|
D|----------------------x----------------------|
A|----------------------x----------------------|
D|----------------------x----------------------|

"Cause I've been..."
e|--0-0-0-0-0-0-0---0-x-|
B|--0-0-0-0-0-0-0---0-x-|
G|--0-0-0-0-0-0-0---0-x-|
D|--3-3-3-3-3-3-3---7-x-|
A|--3-3-3-3-3-3-3---7-x-|
D|--3-3-3-3-3-3-3---7-x-|

VERSE 2:

"And all those....is someone notices"
e|------------------------------------------------------------------|
B|------0----------0----------0----------0----------0----------0----|
G|----5---5------5---5------5---5------5---5------5---5------5---5--|
D|--7----------7----------3----------3----------5----------5--------|
A|------------------------------------------------------------------|
D|------------------------------------------------------------------|

e|----------------------|
B|------0----------0----|
G|----5---5------5---5--|
D|--4----------4--------|
A|----------------------|
D|----------------------|

"I lose my place....open, analyze"
e|------------------------------------------------------------------|
B|------0----------0----------0----------0----------0----------0----|
G|----5---5------5---5------5---5------5---5------5---5------5---5--|
D|--7----------7----------3----------3----------5----------5--------|
A|------------------------------------------------------------------|
D|------------------------------------------------------------------|

e|----------------------|
B|------0----------0----|
G|----5---5------5---5--|
D|--4----------4--------|
A|----------------------|
D|----------------------|

CHORUS:

"This isn't me...."
e|--0-0-0-0-0-0-0--0-0-0-0-0-0-0-x-|
B|--0-0-0-0-0-0-0--0-0-0-0-0-0-0-x-|
G|--0-0-0-0-0-0-0--0-0-0-0-0-0-0-x-|
D|--3-3-3-3-3-3-3-/7-7-7-7-7-7-7-x-|
A|--3-3-3-3-3-3-3-/7-7-7-7-7-7-7-x-|
D|--3-3-3-3-3-3-3-/7-7-7-7-7-7-7-x-|

e|--8--8--8--8--8--8--8-x--8--8--8--8--8--8--8-|
B|-10-10-10-10-10-10-10-x-10-10-10-10-10-10-10-|
G|--0--0--0--0--0--0--0-x--0--0--0--0--0--0--0-|
D|----------------------x----------------------|
A|----------------------x----------------------|
D|----------------------x----------------------|

"All the love..."
e|--0-0-0-0-0-0-0--0-0-0-0-0-0-0-x-|
B|--0-0-0-0-0-0-0--0-0-0-0-0-0-0-x-|
G|--0-0-0-0-0-0-0--0-0-0-0-0-0-0-x-|
D|--3-3-3-3-3-3-3-/7-7-7-7-7-7-7-x-|
A|--3-3-3-3-3-3-3-/7-7-7-7-7-7-7-x-|
D|--3-3-3-3-3-3-3-/7-7-7-7-7-7-7-x-|

e|--8--8--8--8--8--8--8-x--8--8--8--8--8--8--8-|
B|-10-10-10-10-10-10-10-x-10-10-10-10-10-10-10-|
G|--0--0--0--0--0--0--0-x--0--0--0--0--0--0--0-|
D|----------------------x----------------------|
A|----------------------x----------------------|
D|----------------------x----------------------|

"It feels good...."
e|--0-0-0-0-0-0-0--0-0-0-0-0-0-0-x-|
B|--0-0-0-0-0-0-0--0-0-0-0-0-0-0-x-|
G|--0-0-0-0-0-0-0--0-0-0-0-0-0-0-x-|
D|--3-3-3-3-3-3-3-/7-7-7-7-7-7-7-x-|
A|--3-3-3-3-3-3-3-/7-7-7-7-7-7-7-x-|
D|--3-3-3-3-3-3-3-/7-7-7-7-7-7-7-x-|

e|--8--8--8--8--8--8--8-x--8--8--8--8--8--8--8-|
B|-10-10-10-10-10-10-10-x-10-10-10-10-10-10-10-|
G|--0--0--0--0--0--0--0-x--0--0--0--0--0--0--0-|
D|----------------------x----------------------|
A|----------------------x----------------------|
D|----------------------x----------------------|

"Cause I've been..."
e|--0-0-0-0-0-0-0-0-0-0-0-0-0-0-|
B|--0-0-0-0-0-0-0-0-0-0-0-0-0-0-|
G|--0-0-0-0-0-0-0-0-0-0-0-0-0-0-|
D|--3-3-3-3-3-3-3-3-3-3-3-3-3-3-|
A|--3-3-3-3-3-3-3-3-3-3-3-3-3-3-|
D|--3-3-3-3-3-3-3-3-3-3-3-3-3-3-|

SOLO:

e|------------------------------------------------------|
B|------------------------------------------------------|
G|------------------------------------------------------|
D|-9-7-9h10p9----9----9h10p9----------------------------|   2x
A|------------10---10--------9-10-9---9-10--7--9--10/12-|
D|------------------------------------------------------|

ENDING:
e|-0-x-----0-----8--8--8--8--8--8--8-x--8--8--8--8--8--8--8-|
B|-0-x-----0----10-10-10-10-10-10-10-x-10-10-10-10-10-10-10-|
G|-0-x-----0-----0--0--0--0--0--0--0-x--0--0--0--0--0--0--0-|
D|-3-x-----7-------------------------x----------------------|
A|-3-x-----7-------------------------x----------------------|
D|-3-x-----7-------------------------x----------------------|

e|-0----0-----------------------------------------------------------|
B|-0----0-----------------------------------------------------------|
G|-0----0-----------------------------------------------------------|
D|-3----7-----9-7-9h10p9----9----9h10p9-----------------------------|
A|-3----7----------------10---10--------9-10-9---9-10---7--9--10/12-|
D|-3----7-----------------------------------------------------------|

e|----------------------------------------------0-|
B|----------------------------------------------0-|
G|----------------------------------------------0-|
D|-9-7-9h10p9----9----9h10p9--------------------7-|
A|------------10---10--------9-10-9---9-10---7--7-|
D|----------------------------------------------7-|


Thanks!!!
Tap to rate this tab
# A B C D E F G H I J K L M N O P Q R S T U V W X Y Z