Song name
# A B C D E F G H I J K L M N O P Q R S T U V W X Y Z

Demon Hunter - Infected tab

I DIDN'T DO THIS....I SAW IT ALL ANOTHER SITE!!!!


This is Totally correct!!!!!     Enjoy fellow Demon Hunters!    This one is Tooo EASY!
Tabbed by Tim richardson(6hoursfrail)
E-mail: moshtaco82@aol.com

Tuning: Drop "C"

Intro:
---------------------------|
---------------------------|
---------------------------|
---------------------------|
8----8----8----8-----------|
8----8----8----8----3\1-0--|

Verse:
-------------------------------|
-------------------------------|
-------------------------------|
8------------------------------|
x------------------------------|
8--0--1--0--1--3--1--0---------|

Pre-Chorus:
--------------------------------------------------------------|
--------------------------------------------------------------|
--------------------------------------------------------------|
------------------------------5-5-5-5-5-5-5-5-5-5-5-5-5-5-5-5-|
6-6-6-6-6-6-6-6-6-6-6-6-1-1-1-5-5-5-5-5-5-5-5-5-5-5-5-5-5-5-5-|
6-6-6-6-6-6-6-6-6-6-6-6-1-1-1-0-0-0-0-0-0-0-0-0-0-0-0-0-0-0-0-|


Chorus:                                       (wah effect..............
--------------------------------------------------------------------------------------|
--------------------------------------------------------------------------------------|
-----------------------------------------------6-6-6-6-6-6-6-6-6-6-6-6----------------|
---------8----------------------8--------------6-6-6-6-6-6-6-6-6-6-6-6----------------|
----6--------6------6-------6--------6-----6---4-4-4-4-4-4-4-4-4-4-4-4----------------|
6----------------6-------6--------------6---------------------------------------------|

Bridge A:  (let ring through out)
---------------------------------------|
---------------------------------------|
-----------------2---------------------|
1-----------------------2--------------|
1-------------------------------3------|
1--------------------------------------|

Bridge B:
-----------------------------------------------|
-----------------------------------------------|
------------------------2----------------------|
-------------------------------2---------------|
1-----1--1---1----------------------3----------|
1-----1--1---1---------------------------------|
Tap to rate this tab
# A B C D E F G H I J K L M N O P Q R S T U V W X Y Z