Song name
# A B C D E F G H I J K L M N O P Q R S T U V W X Y Z

Demon Hunter - Not Ready To Die tab

Demon Hunter - Not Ready to Die
Tabbed by somedude :P

Tuning: Drop B

h=hammer on's
p=pull off's
.=palm mute

Intro
 riff 1            riff 2
|------------|   |---------------|
|------------|   |---------------|
|------------|   |---------------|
|-6p5-0-0-00-|   |---------------|
|-6p5-0-0-00-|   |---------------|
|-6p5-0-0-00-|3x |-0-1p0-1p0-1p0-| repeat 2 but with out 2nd riff

the verse i wasn't really able to pick out so I made up my own part i guess
unless I did get it right...then YAY ME lmao

Verse 1
|------------------------------------|         |-----------------------|
|------------------------------------|         |-----------------------|
|------------------------------------|         |-----------------------|
|------------------------------------|         |-----------------------|
|------------------------------------|         |-----------------------|
|-1p0--0--0--0--0--0--0--1p0-1h3-1p0-| 3x then |-1p0--0--0--0--0--0--0-|

 sounds like the second guitar comes in on this part
|--------------------------------|
|--------------------------------|
|--------------------------------|
|--------------------------------|
|-1p0--0--0--0--0--0--0--1p0-1h3-|
|-1p0--0--0--0--0--0--0--1p0-1h3-|3x then

|-----------------------| |---------|
|-----------------------| |---------|
|-----------------------| |---------|
|-----------------------| |-8--1--3-|
|-1p0--0--0--0--0--0--0-| |-8--1--3-|
|-1p0--0--0--0--0--0--0-| |-8--1--3-|
                        
                    
Tap to rate this tab
# A B C D E F G H I J K L M N O P Q R S T U V W X Y Z