Song name
# A B C D E F G H I J K L M N O P Q R S T U V W X Y Z

Demon Hunter - Tie This Around Your Neck tab

"Tie This Around Your Neck" By Demon Hunter
Tabbed by Matt Lummus. Check for the video at http://www.youtube.com/user/biglu30
The Rhythm isn't always exact, but good enough so that you know what part you're playing.
The notes are 100% though.
If you have any questions message me here or on my youtube channel

P.S. I don't mind if you copy some of this for a powertab/guitarpro tab, but if you do
give me a shout out lol :)
Thanks Again!

INTRO
Gtr. 1
C#------------------------------------------------|
G#------------------------------------------------|
E ---------------5-5b----------------7-7b---------|
B -011-1411-1011-x-x---011-1411-1011-x-x-----X2---|
F#-011-1411-1011-3-3b--011-1411-1011-5-5b---------|
B -011-1411-1011-------011-1411-1011--------------|

Gtr. 2
C#------------------------------------------------|
G#------------------------------------------------|
E ------------------------------------------------|
B -011-1411-1011-7-7----011-1411-1011-8-8----X2---|
F#-011-1411-1011-7-7----011-1411-1011-8-8---------|
B -011-1411-1011-7-7----011-1411-1011-8-8---------|


Verse
Gtr. 1
C#---------------------------------------|
G#---------------------------------------|
E ---------------------------------------|
B --------------0-------------------0----|
F#--------------0--X4---------------0-X4-|
B -7b-7b-7b-7b7b0-------b-5b-5b-5b5b0----|

C#---------------------------------------------|
G#---------------------------------------------|
E ---------------------------------------------|
B ----------------------------------------0----|
F#----------------------------------------0-X2-|
B -1-1-1-411--1-1-1-411--1-1-1-411--1-1-1-0----|

Gtr. 2
C#---------------------------------------------------------------|
G#---------------------------------------------------------------|
E ------------------------121212112121212121212121212121212------|
B --------------0----------x-x-x-x-x-x-x-x-x-x-x-x-x-x-x-x----x4-|
F#--------------0--X4-----10101010101010101010101010101010-------|
B -7b-7b-7b-7b7b0------------------------------------------------|

C#---------------------------------------------|
G#---------------------------------------------|
E ---------------------------------------------|
B ----------------------------------------0----|
F#----------------------------------------0-X2-|
B -1-1-1-411--1-1-1-411--1-1-1-411--1-1-1-0----|

PRE-CHORUS
Gtr. 1
C#-----------------------------------------------------------------|
G#-----------------------------------------------------------------|
E -----------------6-6-6-6-6-6-6-6-6-6-6-6-6-6-6-6-6-6-6-6-6-6-6-6-|
B -1-1-1---1-1-1---x-x-x-x-x-x-x-x-x-x-x-x-x-x-x-x-x-x-x-x-x-x-x-x-|
F#-1-1-1---1-1-1---4-4-4-4-4-4-4-4-4-4-4-4-4-4-4-4-4-4-4-4-4-4-4-4-|
B -1-1-1---1-1-1---------------------------------------------------|

Gtr. 2
C#--------------------------------|
G#--------------------------------|
E --------------------------------|
B -1-1-1---1-1-1------------------|
F#-1-1-1---1-1-1-X2---------------|
B -1-1-1---1-1-1------------------|


CHORUS
Gtr. 1
C#--------------------------------------------------------------------------|
G#--------------------------------------------------------------------------|
E ---------------5-5b----------------7-7b-----------------------------------|
B -011-1411-1011-x-x---011-1411-1011-x-x------------------------------------|
F#-011-1411-1011-3-3b--011-1411-1011-5-5b-----------------------------------|
B -011-1411-1011-------011-1411-1011-------99999999999999996666666666666666-|

C#----------------------|
G#----------------------|
E ----------------------|
B -011-1411-1011--7456--|
F#-011-1411-1011--7456--|
B -011-1411-1011--7456--|

C#--------------------------------------------------------------------------|
G#--------------------------------------------------------------------------|
E ---------------5-5b----------------7-7b-----------------------------------|
B -011-1411-1011-x-x---011-1411-1011-x-x------------------------------------|
F#-011-1411-1011-3-3b--011-1411-1011-5-5b-----------------------------------|
B -011-1411-1011-------011-1411-1011-------99999999999999996666666666666666-|

C#-----------------------------|
G#-----------------------------|
E -----------------------------|
B -011-1411-1011--8-8--1-1-1-1-|
F#-011-1411-1011--8-8--1-1-1-1-|
B -011-1411-1011--8-8--1-1-1-1-|

Gtr. 2
C#---------------------------------------------------------------------------|
G#---------------------------------------------------------------------------|
E ---------------------------------------------------------------------------|
B -011-1411-1011-7-7----011-1411-1011-8-8------------------------------------|
F#-011-1411-1011-7-7----011-1411-1011-8-8------------------------------------|
B -011-1411-1011-7-7----011-1411-1011-8-8---99999999999999996666666666666666-|

C#----------------------|
G#----------------------|
E ----------------------|
B -011-1411-1011--7456--|
F#-011-1411-1011--7456--|
B -011-1411-1011--7456--|

C#---------------------------------------------------------------------------|
G#---------------------------------------------------------------------------|
E ---------------------------------------------------------------------------|
B -011-1411-1011-7-7----011-1411-1011-8-8------------------------------------|
F#-011-1411-1011-7-7----011-1411-1011-8-8------------------------------------|
B -011-1411-1011-7-7----011-1411-1011-8-8---99999999999999996666666666666666-|

C#-----------------------------|
G#-----------------------------|
E -----------------------------|
B -011-1411-1011--8-8--1-1-1-1-|
F#-011-1411-1011--8-8--1-1-1-1-|
B -011-1411-1011--8-8--1-1-1-1-|


VERSE


PRE-CHORUS 2
Gtr. 1
C#------------------------------------------------------------------|
G#--------------------11-11-11-11-11-11-11-11-11-11-11-11-11--------|
E -----------------14b15-15-15-15-15-15b14b15-15-15-15-15-15v-------|
B -1-1-1---1-1-1-------------exact rhythm-----------------(Vibrato--|
F#-1-1-1---1-1-1-------------not shown------------------------------|
B -1-1-1---1-1-1--------------here----------------------------------|

Gtr. 2
C#--------------------------------|
G#--------------------------------|
E --------------------------------|
B -1-1-1---1-1-1------------------|
F#-1-1-1---1-1-1-X2---------------|
B -1-1-1---1-1-1------------------|


CHORUS


BRIDGE
Gtr. 1
C#-----------------------------------------------------------------|
G#-----------------------------------------------------------------|
E -----------------------------------------------------------------|
B -888888888888888844444444666688886666666666666666333333333333333-|
F#-----------------------------------------------------------------|
B -----------------------------------------------------------------|

C#-------------------------------------------------------------------|
G#-------------------------------------------------------------------|
E -------------------------------------------------------------------|
B -888888888888888844444444666688886666666666666666777777777777777---|
F# ------------------------------------------------------------------|
B -------------------------------------------------------------------|

Gtr. 2
C#-------------------------------------------------------------------|
G#-------------------------------------------------------------------|
E -------------------------------------------------------------------|
B -------------------------------------------------------------------|
F#-------------------------------------------------------------------|
B -88888888888888888111111113333444466666666666666660000000000000000-|

C#-------------------------------------------------------------------|
G#-------------------------------------------------------------------|
E -------------------------------------------------------------------|
B -------------------------------------------------------------------|
F#-------------------------------------------------------------------|
B -88888888888888888111111113333444466666666666666667777777777777777-|


BRIDGE2
C#------------------------------------|
G#-------------0-------------------0--|
E -------------0-------------------0--|
B -0-1-0-1-0-1-0-------0-1-0-1-0-1-0--|
F#-0-1-0-1-0-1---------0-1-0-1-0-1----|
B -0-1-0-1-0-1---17/0--0-1-0-1-0-1----|

C#---------------------------------------------------------------------|
G#-------------0-------------------------------------------------------|
E -------------0-------------------15*---------------------------------|
B -0-1-0-1-0-1-0-------0-1-0-1-0-1----(hit harmonic then---------------|
F#-0-1-0-1-0-1---------0-1-0-1-0-1------detune down on the whammy bar)-|
B -0-1-0-1-0-1---17/0--0-1-0-1-0-1-------------------------------------|


CHORUS


OUTRO
C#---------------------------------------------------------|
G#---------------------------------------------------------|
E ---------------------------------------------------------|
B ----------------------------1-1-1------------------------|
F#----------------------------1-1-1------------------------|
B -1-1-1-41-1--X3--1-1-1-0----1-1-1---1-1-1-41-1---1-1-1-0-|

C#-----------------------------------|
G#-----------------------------------|
E -----------------------------------|
B --------------------------------X2-|
F#-----------------------------------|
B -1-1-1-41-1--X3--1-1-1-0-----------|
Tap to rate this tab
# A B C D E F G H I J K L M N O P Q R S T U V W X Y Z