Song name
# A B C D E F G H I J K L M N O P Q R S T U V W X Y Z

Demon Hunter - Lifewar tab

"Life War" By Demon Hunter
Tabbed by Matt Lummus. Check for the video at http://www.youtube.com/user/biglu30
The Rhythm isn't always exact, but good enough so that you know what part you're playing.
The notes are 100% though.
If you have any questions message me here or on my youtube channel

P.S. I don't mind if you copy some of this for a powertab/guitarpro tab, but if you do 
give me a shout out lol :)
Thanks Again!

VERSE
Gtr. 1
C#----------------------------------|
G#----------------------------------|
E ----------------------------------|
B ----------------------------------|
F#----------------------------------|
B -2--2--2--2--2--2--2--2-----------|

C#----------------------------------|
G#----------------------------------|
E ----------------------------------|
B -----------------------------X4---|
F#-3b4------------------------------|
B -----2--2--2--2--2--2--2----------|

Gtr. 2
C#--------------------------8b10----|
G#----------------------------------|
E ----------------------------------|
B ----------------------------------|
F#----------------------------------|
B -2--2--2--2--2--2--2--2-----------|

C#--8b10----------------------------|
G#----------------------------------|
E ----------------------------------|
B -------------------------------X4-|
F#----------------------------------|
B -------2--2--2--2--2--2--2--2-----|

CHORUS
Gtr. 1
C#----------------------------------|
G#----------------------------------|
E ----------------------------------|
B -0-0-0-0-0-0-0-0------------------|
F#-0-0-0-0-0-0-0-0------------------|
B -0-0-0-0-0-0-0-0------------------|

Gtr. 2
C#---------------------------------------|
G#---------------------------------------|
E -7-------------------------------------|
B ---7--7b8b7--6--7*--6--7--7b8b7--6--7*-|
F#--------------(*Pinch Harmonic)--------|
B ---------------------------------------|

VERSE
CHORUS
Tap to rate this tab
# A B C D E F G H I J K L M N O P Q R S T U V W X Y Z