Song name
# A B C D E F G H I J K L M N O P Q R S T U V W X Y Z

Demon Hunter - This Is The Line tab

"This Is The Line" By Demon Hunter
Tabbed by Matt Lummus. Check for the video at http://www.youtube.com/user/biglu30
The Rhythm isn't always exact, but good enough so that you know what part you're playing.
The notes are 100% though.
If you have any questions message me here or on my youtube channel

P.S. I don't mind if you copy some of this for a powertab/guitarpro tab, but if you do 
give me a shout out lol :)
Thanks Again!


INTRO
Gtr. 1
C#-----------------------------------------------|
G#-----------------------------------------------|
E -----------------------------------------------|
B -2-2---2---2-2-----------0-0-0-0---0-0-0-0--5--|
F#-2-2-5-2---2-2-5---------0-0-0-0---0-0-0-0--5--|
B -2-2---2---2-2---2-3-5-3-0-0-0-0---0-0-0-0--5--|

Gtr. 2
C#--------------------------------------------|
G#--------------------------------------------|
E -------------------------777777777777777-12-|
B -2-2---2---2-2 ----------xxxxxxxxxxxxxxx--x-|
F#-2-2-5-2---2-2-5---------555555555555555-10-|
B -2-2---2---2-2---2-3-5-3--------------------|

C#---------------------------------------|
G#---------------------------------------|
E -9999999999999--777777777777777-12-----|
B -xxxxxxxxxxxxx--xxxxxxxxxxxxxxx--x--X3-|
F#-7777777777777--555555555555555-10-----|
B ---------------------------------------|

VERSE
Gtr. 1
C#---------------------------------------------------|
G#---------------------------------------------------|
E ---------------------------------------------------|
B ---------------------------------------------------|
F#---------------555555--------3333333-------6666666-|
B -22222222222222------33333333-------6666666--------|

C#-----------------------------------------------------|
G#-----------------------------------------------------|
E -----------------------------------------------------|
B -----------------------------------------------0-2-3-|
F#---------------555555--------3333333-----------0-2-3-|
B -22222222222222------33333333-------6666666-3*-0-2-3-|

Gtr. 2
C#----------------------------------------------------|
G#----------------------------------------------------|
E -----------------------------5555555--------8888888-|
B -5555555555555544444433333333-------6666666---------|
F#----------------------------------------------------|
B ----------------------------------------------------|

C#-----------------------------------------------------|
G#-----------------------------------------------------|
E -----------------------------5555555-----------------|
B -5555555555555544444433333333-------6666666----0-2-3-|
F#-----------------------------------------------0-2-3-|
B --------------------------------------------3*-0-2-3-|

PRE-CHORUS 1
C#-----------------------------------------------------|
G#-----------------------------------------------------|
E -----------------------------------------------------|
B -2-2-2----2-2-2-2-2----2-2-2-2-2----2-2-2-2-2----2-2-|
F#-2-2-2----2-2-2-2-2----2-2-2-2-2----2-2-2-2-2----2-2-|
B -2-2-2----2-2-2-2-2----2-2-2-2-2----2-2-2-2-2----2-2-|

PRE-CHORUS 2
Gtr. 1
C#---------------------------------------------|
G#---------------------------------------------|
E ---------------------------------------------|
B -1---1-1-1---1---1-1-1---1---1-1-1---1-------|
F#-1---1-1-1---1---1-1-1---1---1-1-1---1-------|
B -1---1-1-1---1---1-1-1---1---1-1-1---1---3b4-|

Gtr. 2
C#-------------------------------------------|
G#-------------------------7777777777766666--|
E -8888888888887777777777778888888888877777--|
B -xxxxxxxxxxxxxxxxxxxxxxxxxxxxxxxxxxxxxxxx--
F#-6666666666665555555555556666666666655555--|
B -------------------------------------------|

CHORUS
Gtr. 1
C#-----------------------------------------------|
G#-----------------------------------------------|
E -----------------------------------------------|
B -2-2---2---2-2-----------0-0-0-0---0-0-0-0--5--|
F#-2-2-5-2---2-2-5---------0-0-0-0---0-0-0-0--5--|
B -2-2---2---2-2---2-3-5-3-0-0-0-0---0-0-0-0--5--|

Gtr. 2

C#---------------------------------------|
G#---------------------------------------|
E -9999999999999--777777777777777-12-----|
B -xxxxxxxxxxxxx--xxxxxxxxxxxxxxx--x-----|
F#-7777777777777--555555555555555-10-----|
B ---------------------------------------|

BRIDGE 1
Gtr. 2
C#----------------------------------|
G#----------------------------------|
E ----------------------------------|
B -55555555555555-------------------|
F#----------------------------------|
B ----------------------------------|

VERSE
PRE-CHORUS 1
PRE-CHORUS 2
CHORUS

Bridge 2
C#----------------------------------|
G#----------------------------------|
E ----------------------------------|
B -2-2-2-2--------------------------|
F#-2-2-2-2--------------------------|
B -2-2-2-2--------------------------|

SOLO
Gtr. 1 (Rhythm)
C#---------------------------------------|
G#---------------------------------------|
E ---------------------------------------|
B ------------------------------------X2-|
F#-----------------33333333333-----------|
B -2222222222222222-----------0000000000-|

C#-------------------------------------------|
G#-------------------------------------------|
E -------------------------------------------|
B ----------------------------------------X2-|
F#---------------------33333333333-----------|
B -22222222244444455555-----------0000000000-|

C#--------------------------------------------------------------|
G#--------------------------------------------------------------|
E --------------------------------------------------------------|
B ------------------------------------------------------X2------|
F#------------------------------------333333333333--------------|
B -22222224444444445555555444422220000------------0000000000000-|

C#--------------------------------------------------|
G#--------------------------------------------------|
E --------------------------------------------------|
B -2-2-2----2-2-2-2-2----2-2-2-2-2----2-2-2-2-2-----|
F#-2-2-2----2-2-2-2-2----2-2-2-2-2----2-2-2-2-2-----|
B -2-2-2----2-2-2-2-2----2-2-2-2-2----2-2-2-2-2-----|

Gtr. 2 (Lead)
C#----------------------------------------------------------|
G#------------------------------------------------------9*--|
E ------------------------------------------------------9*--|
B --9~-----7-9-10----7-9-9b109-7-9/12---10~---12-10-9~------|
F#----------------10----------------------------------------|
B ----------------------------------------------------------|

                    (1's and 3's are just the expressed lower harmony)
C#-------------------------------------------------------------------|
G#------------------------------------------1-1-1-1-1--3--3--3--3--3-|
E ------------------------------------------9-9-9-9-9-11-11-11-11-11-|
B --9~-----7-9-10----7-9-9b109-7-9/12---10w--------------------------|
F#----------------10-------------------------------------------------|
B -------------------------------------------------------------------|

   (normal Lead part)
C#-777777755555557777777-9-9-9-9-9-9-10---8----8-10-8-------|
G#-888888877777778888888101010101010-----------------12-8-9-|
E ----------------------------------------------------------|
B -55555555555555555555-------------------------------------|
F#-(3rd guitar part)----------------------------------------|
B ----------------------------------------------------------|

C#-----------------------------------------------------------------|
G#-------------------------12/13/12----------10--10b12--10b12b10-8-|
E -------9-12-9-12/14/12-11--------12--9~--12----------------------|
B ---9-12----------------------------12----------------------------|
F#-12--------------------------------------------------------------|
B -----------------------------------------------------------------|

C#------------------------5555555557777755555-------------------------------|
G#-10~--10b12b10-888888888-------------------888887777788888888887777777777-|
E --------------------------------------------------------------------------|
B --------------------------------------------------------------------------|
F#--------------------------------------------------------------------------|
B --------------------------------------------------------------------------|

C#----------5555555557777755555----------88888888810101010101010--|
G#-888888888-------------------8888877777-------------------------|
E ----------------------------------------------------------------|
B ----------------------------------------------------------------|
F#----------------------------------------------------------------|
B ----------------------------------------------------------------|

C#-12---------------13----12-----------|
G#-------------------------------------|
E -------------------------------------|
B -------------------------------------|
F#-------------------------------------|
B -------------------------------------|


PRE-CHORUS 3
C#-----------------------------------------------------|
G#-----------------------------------------------------|
E -----------------------------------------------------|
B -2-2-2----2-2-2-2-2----2-2-2-2-2----2-2-2-2-2--------|
F#-2-2-2----2-2-2-2-2----2-2-2-2-2----2-2-2-2-2--------|
B -2-2-2----2-2-2-2-2----2-2-2-2-2----2-2-2-2-2----3b4-|


CHORUS

OUTRO
C#----------------------------------|
G#----------------------------------|
E ----------------------------------|
B -2-2---2--------------------------|
F#-2-2-5-2--------------------------|
B -2-2---2--------------------------|
Tap to rate this tab
 
# A B C D E F G H I J K L M N O P Q R S T U V W X Y Z