Song name
# A B C D E F G H I J K L M N O P Q R S T U V W X Y Z

Demon Hunter - Driving Nails tab

Tuning: Drop B (B F# b E G# C#)

| \  down-slide
| .  palm-mute
| ~  let ring

So epic. :) Rhythm not posted. For sections labeled {Part 1} or {Part 2} in a 
certain section of the song, it means they are supposed to be played at the same 
time. {Part 1} is generally the dominant riff of that section.

[Intro]
{Part 1}
Db|-------------------------------------------------------|
Ab|-------------------------------------------------------|
E |-------------------------------------------------------|
b |--7--10-9-10-2---9--5-3-0--5--7--10-9-10-2---12--10-9--|
Gb|--7----------2---9--5-3-0--5--7----------2---12--10-9--|
B |--7----------2---9--5-3-0--5--7----------2---12--10-9--|

{Part 2}
Db|-----------------------------------------------|
Ab|-----------------------------------------------|
E |--2--5-4-5----4------------2--5-4-5----7--5-4--|
b |-----------2-----5-3-0--5-----------2----------|
Gb|-----------------------------------------------|
B |-----------------------------------------------|

[Verse 1]
{Part 1}
Db|----------------------------------------------|
Ab|----------------------5--6-3------------------|
E |--5--4--2--5-4-5--4-0--------5--4-0-2--5-4-5--|
b |----------------------------------------------|
Gb|----------------------------------------------|
B |----------------------------------------------|

{Part 2}
Db|---------------------------|
Ab|---------------------------|
E |---------------------------| x2
b |--7--10-2-7--5--7--10-2-5--|
Gb|--7--10-2-7--5--7--10-2-5--|
B |--7--10-2-7--5--7--10-2-5--|

[Pre-Chorus]
{Part 1}
Db|--------------------------------------|
Ab|----8-10-----------------8-10---------|
E |--5-------9--7-----------------12-10--|
b |----------------10\9-7-7--------------|
Gb|--------------------------------------|
B |--------------------------------------|

{Part 2}
Db|-------------------------------|
Ab|-------------------------------|
E |-------------------------------|
b |--3-9-7--10--9--3-9-7--10--12--|
Gb|--3-9-7--10--9--3-9-7--10--12--|
B |--3-9-7--10--9--3-9-7--10--12--|


[Chorus] Play [Intro] {Part 2} under this
Db|---------------------------------------|
Ab|---------------------------------------|
E |---------------------------------------|
b |--7--2---9--5-3-0--5--7--2---12--10-9--|
Gb|--7--2---9--5-3-0--5--7--2---12--10-9--|
B |--7--2---9--5-3-0--5--7--2---12--10-9--|


[Verse 2] Play [Verse 1] {Part 2} one time after
Db|----------|                  /--------------- this baby
Ab|----------|         /-------/                 and during    
E |----------| <------/                                 /-- this baby
b |--3--2-7--|                                      /--/
Gb|--3--2-7--|                                     /
B |--3--2-7--|                                    /
                                                 /
Db|-----------------------------------|         /
Ab|---------------------------5--6-3--|     /--/
E |--5--4-0-2--5-4/5-4-5--4-0---------| <--/
b |-----------------------------------|
Gb|-----------------------------------|
B |-----------------------------------|

[Bridge] Piece it together. ;)
    /   Start    \   /   Middle  \   /  End  \
Db|----------------------------------------------|
Ab|----------------------------------------------|
E |--5---4---7---5---5---4---7---5---5--9-7-10---|
b |----------------------------------------------|
Gb|----------------------------------------------|
B |----------------------------------------------|

  /Start\   /  Middle   \  /End\
Db|-------------------------------|
Ab|-------------------------------|
E |------------------------5---7--|
b |--7------10--9--12--10--5---7--|
Gb|--7------10--9--12--10--3---5--|
B |--7------10--9--12--10---------|

(This is normally played with orchestral strings, but if you're lacking those then 
you can play this. ;) Rhythm still isn't posted, but I put the one picking 
sequence twice to show that you do two repetitions; it's not a different chord.)
Db|---------8--------7--------7------------|
Ab|------10--------8--------8----10-10/12--|
E |----9---------7--------7----------------|
b |--7---------5--------5--------7--7/9----|
Gb|----------------------------------------|
B |----------------------------------------|
     ..........................

Db|---------8--------7--------7---------|
Ab|------10--------8--------8----13-12--|
E |----9---------7--------7-------------|
b |--7---------5--------5--------10-9---|
Gb|-------------------------------------|
B |-------------------------------------|
     ..........................

--->  Pick slide!  <---
 
[Chorus] x2, then end it with:

Db|-----------|
Ab|-----------|
E |-----------|
b |--3--2-7~--|
Gb|--3--2-7~--|
B |--3--2-7~--|

Hope you enjoy it. God bless :)
Tap to rate this tab
# A B C D E F G H I J K L M N O P Q R S T U V W X Y Z