Song name
# A B C D E F G H I J K L M N O P Q R S T U V W X Y Z

Demon Hunter - Tide Began To Rise Acoustic tab

Artist: Demon Hunter
Song: The Tide Began to Rise (Acoustic)
Tuning: Drop D



Intro:
E|---------0-----1-----------0-----1---------------0---------------0-|
B|---3---3-----3-------3---3-----3-----1---1-3---3-----1---1-3---3---|
G|-----2-----2-----------2-----2---------0-----0---------0-----0-----| 2x 
D|-------------------------------------------------------------------|
A|-------------------------------------------------------------------|
D|-------------------------------------------------------------------|


Verse (Lead):
E|---------0-----1-----------0-----1---------------0---------------0-|
B|---3---3-----3-------3---3-----3-----1---1-3---3-----1---1-3---3---|
G|-----2-----2-----------2-----2---------0-----0---------0-----0-----|
D|-------------------------------------------------------------------|
A|-------------------------------------------------------------------|
D|-------------------------------------------------------------------|

Verse (Rythm)
E|----------------------------------|
B|-2-2-2-2-2-2-2-2--1-1-1-1-1-1-1-1-|
G|-3-3-3-3-3-3-3-3--0-0-0-0-0-0-0-0-|
D|-0-0-0-0-0-0-0-0--2-2-2-2-2-2-2-2-|
A|----------------------------------|
D|----------------------------------|


"It's getting so hard.."
E|---------0-----1-----------0-----1------------------|
B|---3---3-----3-------3---3-----3--------------------|
G|-----2-----2-----------2-----2----------------------|
D|--------------------------------------3-2---/10-8-3-|
A|--------------------------------------3-2---/10-8-3-|
D|--------------------------------------3-2---/10-8-3-|

(Also sounds good to go back to 10 insetead of 3 at the end)

Verse (Lead):
E|---------0-----1-----------0-----1---------------0---------------0-|
B|---3---3-----3-------3---3-----3-----1---1-3---3-----1---1-3---3---|
G|-----2-----2-----------2-----2---------0-----0---------0-----0-----|
D|-------------------------------------------------------------------|
A|-------------------------------------------------------------------|
D|-------------------------------------------------------------------|

Verse (Rythm)
E|----------------------------------|
B|-2-2-2-2-2-2-2-2--1-1-1-1-1-1-1-1-|
G|-3-3-3-3-3-3-3-3--0-0-0-0-0-0-0-0-|
D|-0-0-0-0-0-0-0-0--2-2-2-2-2-2-2-2-|
A|----------------------------------|
D|----------------------------------|


Pre Chorus:
"So I remember on.."
E|-----------------|
B|-----------------|
G|-----------------|
D|---8----\1---/3--|
A|---8----\1---/3--|
D|---8----\1---/3--|

Chorus:
"I found.."
E|-----------------|         |------------|
B|-----------------|         |------------|
G|-----------------|         |------------|
D|---5---0---1---3-| 3x then |--1-----3---| (hold chords 2x as long)
A|---5---0---1---3-|         |--1-----3---|
D|---5---0---1---3-|         |--1-----3---|


Intro:
E|---------0-----1-----------0-----1---------------0---------------0-|
B|---3---3-----3-------3---3-----3-----1---1-3---3-----1---1-3---3---|
G|-----2-----2-----------2-----2---------0-----0---------0-----0-----| 2x 
D|-------------------------------------------------------------------|
A|-------------------------------------------------------------------|
D|-------------------------------------------------------------------|

Verse (Lead):
E|---------0-----1-----------0-----1---------------0---------------0-|
B|---3---3-----3-------3---3-----3-----1---1-3---3-----1---1-3---3---|
G|-----2-----2-----------2-----2---------0-----0---------0-----0-----|
D|-------------------------------------------------------------------|
A|-------------------------------------------------------------------|
D|-------------------------------------------------------------------|

Verse (Rythm)
E|----------------------------------|
B|-2-2-2-2-2-2-2-2--1-1-1-1-1-1-1-1-|
G|-3-3-3-3-3-3-3-3--0-0-0-0-0-0-0-0-|
D|-0-0-0-0-0-0-0-0--2-2-2-2-2-2-2-2-|
A|----------------------------------|
D|----------------------------------|


"I should have known.."
E|---------0-----1-----------0-----1------------------|
B|---3---3-----3-------3---3-----3--------------------|
G|-----2-----2-----------2-----2----------------------|
D|--------------------------------------3-2---/10-8-3-|
A|--------------------------------------3-2---/10-8-3-|
D|--------------------------------------3-2---/10-8-3-|

(Also sounds good to go back to 10 insetead of 3 at the end)

Pre Chorus:
"So I remember on.."
E|-----------------|
B|-----------------|
G|-----------------|
D|---8----\1---/3--|
A|---8----\1---/3--|
D|---8----\1---/3--|

Chorus:
"I found.."
E|-----------------|         |------------|
B|-----------------|         |------------|
G|-----------------|         |------------|
D|---5---0---1---3-| 3x then |--1-----3---| (hold chords 2x as long)
A|---5---0---1---3-|         |--1-----3---|
D|---5---0---1---3-|         |--1-----3---|


Bridge & Ending (Lead):
"If this is all.."
E|--------------------------------------------------------------------------|
B|--------------------------------------------------------------------------|
G|-7-7-7-7-7-5-3-5-7-5-3-7-7-7-7-7-10-10-10-10-10-12-12-10-7-7-7-7-7-5-3-5-3| 
D|-0-0-0-0-0-0-0-0-0-0-0-0-0-0-0-0-0--0--0--0--0--0--0--0--0-0-0-0-0-0-0-0-0| 
A|--------------------------------------------------------------------------|
D|--------------------------------------------------------------------------|


Bridge & Ending (Rythm):
E|----------------------------|
B|----------------------------|
G|----------------------------|
D|---8------3------0------1---|
A|---8------3------0------1---|
D|---8------3------0------1---|



(But this sounds good too)
Bridge & Ending (Rythm):
E|--------------------------------|
B|--------------------------------|
G|--------------------------------|
D|---8------3---5------0------1---|
A|---8------3---5------0------1---|
D|---8------3---5------0------1---|



Amazing song!
Tap to rate this tab
 
# A B C D E F G H I J K L M N O P Q R S T U V W X Y Z