Song name
# A B C D E F G H I J K L M N O P Q R S T U V W X Y Z

Demon Hunter - Blood In The Tears Acoustic tab

-------------------------------------------------------------------------------
                             Blood In The Tears (Acoustic) - Demon Hunter
-------------------------------------------------------------------------------
Tabbed by: demonhunter2211
E-mail: demonhunter2211@yahoo.com

Tuning: Drop B

Intro:

e|---------------------------------------------------------------------------|
B|---------------------------------------------------------------------------|
G|---------------------------------------------------------------------------|
D|--------4----------4----------4----------4---------------------------------|
A|-----5----------2----------5----------2------------------------------------|
E|--5----------2----------5----------2---------------------------------------|

Verse(2x):

e|---------------------------------------------------------------------------|
B|---------------------------------------------------------------------------|
G|---------------------------------------------------------------------------|
D|---4--4444--4444--44--4--4444--4444--44--4---------------------------------|
A|---5--5555--5555--55--2--2222--2222--22--2---------------------------------|
E|---5--5555--5555--55--2--2222--2222--22--2---------------------------------|

Pre-Chorus

e|---------------------------------------------------------------------------|
B|---------------------------------------------------------------------------|
G|--5--55--552222------------------------------------------------------------|
D|--5--55--552222----------0-------------------------------------------------|
A|--3--33--330000----------0-------------------------------------------------|
E|-------------------------0-------------------------------------------------|

Chorus (not sure of strumming pattern so I will just put chords, in order of use):

e|---------------------------------------------------------------------------|
B|---------------------------------------------------------------------------|
G|---------------------------------------------------------------------------|
D|--5-0-2-4----5-0-2-0-2-4---------------------------------------------------|
A|--5-0-2-4----5-0-2-0-2-4---------------------------------------------------|
E|--5-0-2-4----5-0-2-0-2-4---------------------------------------------------|

(Verse)

(Pre-Chorus

(Chorus)

Bridge (x4):

e|---------------------------------------------------------------------------|
B|---------------------------------------------------------------------------|
G|---------------------------------------------------------------------------|
D|--2-2-0-0-2----24442-2-0-0-2----2000---------------------------------------|
A|--2-2-0-0-2----24442-2-0-0-2----2000---------------------------------------|
E|--2-2-0-0-2----24442-2-0-0-2----2000---------------------------------------|

Outro (same as bridge)


************************************

| /   slide up
| \   slide down
| h   hammer-on
| p   pull-off
| ~   vibrato
| +   harmonic
| x   Mute note
| b   Bend
| pb  Pre-bend
| br  Bend release
| pbr Pre-bend release
| brb Bend release bend

************************************
Tap to rate this tab
 
# A B C D E F G H I J K L M N O P Q R S T U V W X Y Z