Song name
# A B C D E F G H I J K L M N O P Q R S T U V W X Y Z

Demon Hunter - Means To An End tab

-----------------------------------------------------------------------------
                    Means To An End - Demon Hunter
-----------------------------------------------------------------------------
Tabbed by: Levi Lambert
E-mail: levilambert92@googlemail.com

Tuning: EADGBE (Standard)

Demon Hunter - 'Means To An End' From The Deluxe Edition Of 'True Defiance'. I Tabbed
This By Ear But I'm Pretty Sure It's 100% Correct. I've broken the song down into Sections
to try and make it easier to follow but if you're struggling just check out my cover and 
you should get it...Hope it helps!

Link (My Cover): http://www.youtube.com/watch?v=IKEkfr9OBAs
Link (Original): http://www.youtube.com/watch?v=Vn8wP3NoEd8


Patrick Judge's Guitar Part...


Picking Pattern For Section A

e|----------x-------|
B|----x---x---x---x-|
G|--x---x-------x---|
D|------------------|
A|------------------|
E|------------------|

Section A

e|-0--0----------0--0----------0--0----------0--0----------0--0----------0-|
B|-0--0----------0--0----------0--0----------0--0----------0--0----------0-|
G|-12-12---------11-11---------7--7----------9--9----------5--5----------4-|
D|-------------------------------------------------------------------------|
A|-------------------------------------------------------------------------|
E|-------------------------------------------------------------------------|


Picking Pattern For Section B        *Single Note

e|------|
B|---x--|
G|--x---|
D|------|
A|------|
E|------|

Section B

e|--------------------------------------------------------------------------|
B|--0----------------0---------------0---------------0----------------------|
G|--4----------------3---------------2---------------0----------------------|
D|-------------------------------------------------------------------4*-----|
A|--------------------------------------------------------------------------|
E|--------------------------------------------------------------------------|

Repeat Sections A and B


Picking Pattern For Section C

e|-------------------|
B|----------x--------|
G|----x---x---x---x--|
D|--x---x-------x----|
A|-------------------|
E|-------------------|

Section C

e|--------------------------------------------------------------------------|
B|--0--0--------------0--0--------------0--0--------------0--0--------------|
G|--0--0--------------0--0--------------0--0--------------0--0--------------|
D|--2--2--------------4--4--------------5--5--------------1--1--------------|
A|--------------------------------------------------------------------------|
E|--------------------------------------------------------------------------|

Repeat Section C


Picking Pattern For Section D and E

e|-------------------|
B|-------------------|
G|----------x--------|
D|----x---x---x---x--|
A|--x---x-------x----|
E|-------------------|


Section D

e|--------------------------|
B|--------------------------|
G|----0--0----------2--2----|
D|----4--4----------4--4----|
A|----2--2----------4--4----|
E|--------------------------|

Repeat Section D


Section E

e|--------------------------|
B|----0--0----------0--0----|
G|----0--0----------0--0----|
D|----2--2----------4--4----|
A|--------------------------|
E|--------------------------|


Repeat Section E

Repeat Section D x2

Repeat Section E x4

Repeat Section A and B x2


End...

e|--------0--|
B|------0----|
G|----0------|
D|--2--------|
A|-----------|
E|-----------|



Ryan Clark's Guitar Part


Section A x2

e|-------------------------------------------------------------------|
B|-------------------------------------------------------------------|
G|-------------------------------------------------------------------|
D|-------------------------------------------------------------------|
A|-------/7~----9~---------------------------------------------------|
E|-0~-----------------/7~----7----9----10~----12\5~----5----7----8~--|


e|----------------------------------------|
B|----------------------------------------|
G|----------------------------------------|
D|----------------------------------------|
A|----------------------------------------|
E|---10----8----7~----5----3----2----0~---|



Section B

e|------12+--------------------------12+--|
B|--12+--------------------------12+------|
G|----------------------------------------|
D|----------------------------------------|
A|----------------------------------------|
E|----------------/7----0~----------------|


Section C x2

e|----------------------------------------|
B|----------------------------------------|
G|----------------------------------------|
D|----------------------------------------|
A|----------------------------------------|
E|--/7~-----7-----9-----10-----9~-----5~--|


Section D

e|------------------------------------|------|
B|------------------------------------|------|
G|------------------------------------|------|
D|------------------------------------|------|
A|------------------------------------|------|
E|--0~---0---2~--2---3~---3---5~---5--|--7*--|


Repeat Section C x2

Repeat Section E x2   *Play This On The First Repeat Of Section E

Repeat Section A x2


************************************

| /   slide up
| \   slide down
| h   hammer-on
| p   pull-off
| ~   vibrato
| +   harmonic
| x   Mute note
| b   Bend
| pb  Pre-bend
| br  Bend release
| pbr Pre-bend release
| brb Bend release bend

************************************
Tap to rate this tab
# A B C D E F G H I J K L M N O P Q R S T U V W X Y Z