Song name
# A B C D E F G H I J K L M N O P Q R S T U V W X Y Z

Demon Hunter - Our Faces Fall Apart tab

band: Demon Hunter
album: Summer Of Darkness
song: Our faces fall apart
tuning (B F G D A C)
            
Gtr 1 Over driven
Gtr 2 Over driven

(Gtr 1)
|------------------xxxx-------------------| |-----------------xxxx------------------|
|------------------xxxx-------------------| |-----------------xxxx------------------|
|------------------xxxx-------------------| |-----------------xxxx------------------|
|------------------xxxx-------------------| |-----------------xxxx------------------|
|-0h1-1-1-0h1-1-1--xxxx-------------------| |0h1-1-1-0h1-1-1--xxxx-0h1-1-1-0h1-1-1--|
|-0h1-1-1-0h1-1-1--xxxx-------------------| |0h1-1-1-0h1-1-1--xxxx-0h1-1-1-0h1-1-1--|

(Gtr 2)
|-----------------xxxx--------------------| |-----------------xxxx------------------|
|-----------------xxxx--------------------| |-----------------xxxx------------------|
|-----------------xxxx--------------------| |-----------------xxxx------------------|
|-----------------xxxx--------------------| |-----------------xxxx------------------|
|-----------------xxxx--0h1-1-1-0h1-1-1---| |0h1-1-1-0h1-1-1--xxxx-0h1-1-1-0h1-1-1--|
|-----------------xxxx--0h1-1-1-0h1-1-1---| |0h1-1-1-0h1-1-1--xxxx-0h1-1-1-0h1-1-1--|


for the tuning you can use drop-C (C A C G A F) if you don't want to drop-B it
Tap to rate this tab
 
# A B C D E F G H I J K L M N O P Q R S T U V W X Y Z