Song name
# A B C D E F G H I J K L M N O P Q R S T U V W X Y Z

Demon Hunter - Turn Your Back And Run tab

demon hunter
tabbed by cody agnew

e-------------------|-------------------------------------------------------|
b-------------------|-------------------------------------------------------|
g-----777777h8888---|-------------------------------------------------------|
d------------------|--------------------------------------------------------|
a------------------|--------------------------------------------------------|
e------------------|--------------------------------------------------------|intro 4x

e------------------|--------------------------------------------------------|
b------------------|--------------------------------------------------------|
g--7777776666777777686|-----------------------------------------------------|
d--7777776666777777686|-----------------------------------------------------|
a--5555554444555555464|-----------------------------------------------------|
e---------------------------------------------------------------------------|
verse (best i can do with this part)

e-----------------------|----------------------------------------------------|
b-----------------------|----------------------------------------------------|
g-----------------------|----------------------------------------------------|
d----------------77-----|----------------------------------------------------|
a---5---5------5---66---|----------------------------------------------------|
e-00--0---000-0-0-------|----------------------------------------------------|
pre-chorus

e---------------------|-----------------------------------------------------|
b---------------------|-----------------------------------------------------|
g---------------------|-----------------------------------------------------|
d-00-0----00-0-6p5/8--|--000000-----000000----------------------------------|
a-00-0----00-0-6p5/8--|--000000-----000000----------------------------------|
e-00-0-3b-00-0-6p5/8--|--000000-12b-000000-5b-4b----------------------------|chorus

e-------------------------|-10----------------------------------------------|
b-5-6---5-6---5-6---5-6---|-10----------------------------------------------|
g-----7-----7-----7-----7-|-7-----------------------------------------------|
d-------------------------|-7-----------------------------------------------|
a-------------------------|-------------------------------------------------|
e-------------------------|-------------------------------------------------|
bridge (during creepy organ music and singing and again at outro chord)
after that it basically starts over from the verse. and ends with variations
of the chorus. its easy to pick
Tap to rate this tab
 
# A B C D E F G H I J K L M N O P Q R S T U V W X Y Z