Song name
# A B C D E F G H I J K L M N O P Q R S T U V W X Y Z

Demon Hunter - Not Ready To Die tab

----------------------------------------------------------------------------
  not ready to die- demon hunter
----------------------------------------------------------------------------

tabber:barrett
email: bearman_44@yahoo.com


Db|------------------------------------------------------------------------|
Ab|------------------------------------------------------------------------|
E |------------------------------------------------------------------------|
B |-1-1-0-0-0-0-1-1-0-0-0-0-1-1-0-0-0-0-5-3-5-3----------------------------|
Gb|-1-1-0-0-0-0-1-1-0-0-0-0-1-1-0-0-0-0-5-3-5-3----------------------------|
B |-1-1-0-0-0-0-1-1-0-0-0-0-1-1-0-0-0-0-5-3-5-3----------------------------|

Db|------------------------------------------------------------------------|
Ab|------------------------------------------------------------------------|
E |------------------------------------------------------------------------|
B |-5-3-1--1-1-1-1-1-1-1-1-1-1-1-1-1-1-1-1-1-1-1-1-1-1-1-1-1-1-12----------|
Gb|-5-3-1--1-1-1-1-1-1-1-1-1-1-1-1-1-1-1-1-1-1-1-1-1-1-1-1-1-1-12----------|
B |-5-3-1--1-1-1-1-1-1-1-1-1-1-1-1-1-1-1-1-1-1-1-1-1-1-1-1-1-1-12----------|

Db|------------------------------------------------------------------------|
Ab|------------------------------------------------------------------------|
E |------------------------------------------------------------------------|
B |-5--3--7--10---5-5-5-5-5-3-3-3-3-7-7-7-7-1-1-1-1------------------------|
Gb|-5--3--7--10---5-5-5-5-5-3-3-3-3-7-7-7-7-1-1-1-1------------------------|
B |-5--3--7--10---5-5-5-5-5-3-3-3-3-7-7-7-7-1-1-1-1------------------------|

Db|-----------------------------0-------0----------------------------------|
Ab|-------0--------0-------------------------0-----------------------------|
E |-------------------0----------------------------------------------------|
B |------------------------------------------------------------------------|
Gb|---3-5-----3-5-----------5-7----5-7-------------------------------------|
B |------------------------------------------------------------------------|


| /  slide up
| \  slide down
| h  hammer-on
| p  pull-off
| ~  vibrato
| +  harmonic
| x  Mute note
============================================================================
Tap to rate this tab
# A B C D E F G H I J K L M N O P Q R S T U V W X Y Z