Song name
# A B C D E F G H I J K L M N O P Q R S T U V W X Y Z

Demon Hunter - Soldiers Song tab

Tunning drop "B"

tabed by Josh

Meanings
p means pull-off
. means palm mute
~ means let the note ring

Guitar 1
|----------------------------------------------------------|
|----------------------------------------------------------|
|----------------------------------------------------------|
|-----3p2-3p2-3p2-----3p2-3p2------------------------------|
|----------------------------0~----------------------------|
|0-0-0-----------0-0-0-------------------------------------|
 . . .           . . .

Guitar 2
|----------------------------------------------------------|
|----------------------------------------------------------|
|----------------------------------------------------------|
|0-0-0-0~--------0-0-0-0~----------------------------------|
|0-0-0-0~--------0-0-0-0~----------------------------------|
|0-0-0-0~--------0-0-0-0~----------------------------------|
 . . .           . . .

           play this 2x then play this

Guitar 1
|--------------------------------------------------------------------|
|--------------------------------------------------------------------|
|--------------------------------------------------------------------|
|-----3p2-3p2-3p2-----3p2-3p2--------3p2-3p2-3p2-5-5-5-5-5-5-3-3-3-3-|
|----------------------------0~--------------------------------------|
|0-0-0-----------0-0-0----------0-0-0--------------------------------|
 . . .           . . .          . . .

Guitar 2
|--------------------------------------------------------------------|
|--------------------------------------------------------------------|
|--------------------------------------------------------------------|
|0-0-0-----------0-0-0----------0-0-0------------5-5-5-5-5-5-3-3-3-3-|
|0-0-0-----------0-0-0----------0-0-0------------5-5-5-5-5-5-3-3-3-3-|
|0-0-0-----------0-0-0----------0-0-0------------5-5-5-5-5-5-3-3-3-3-|
 . . .           . . .          . . .
Tap to rate this tab
# A B C D E F G H I J K L M N O P Q R S T U V W X Y Z