Song name
# A B C D E F G H I J K L M N O P Q R S T U V W X Y Z

Demon Storm - Towards Cold Black Night tab

T1: Lassi Pitkänen, Markku.pitkanen@pp.inet.fi, DemonStorm, Towards
Cold Black Night, 10.8.1999

S1: Play very fucking fast.Black Metal, RIFF A (Intro riff)
E|--------------
B|--------------
G|--7--------8--
D|--7--7--8--8--
A|--5--7--8--6--
E|-----5--6-----


RIFF B (Tremolo)
E|--------------------
B|--------------------
G|--------4-----------
D|------5---5---------
A|--3-6-------6-3-----
E|----------------2---


RIFF C (Tremolo)
E|--------------------
B|--------------------
G|--------------------
D|--2--5--6--3--------
A|--------------------
E|--------------------

Tap to rate this tab
# A B C D E F G H I J K L M N O P Q R S T U V W X Y Z