Demon - Night Of The Demon tab

Night of the Demon by the band from their 1981 album Night of the Demon.

Intro           X2 (2nd guitar play 5's on A string throughout)        X2      
e-----------------|------------------------------------------------------|
B-----------------|------------------------------------------------------|
G-----------------|-7-7-7-----2---3~~-----------------5-5-5-----10--7~~--|
D-----------------|-7-7-7-----2---3~~-----------------5-5-5-----10--7~~--|
A-5-5-5-5-5-5-5-5-|-5-5-5-----0---1~~-----------------3-3-3-----8---5~~--|
E-----------------|------------------------------------------------------|

Verse 1
Guitar 1                                                        X2
e-----------------------------------------------------------------|
B-----------------------------------------------------------------|
G-7~~---------------------------777~----555~----333~--------------|
D-7~~---------------------------777~----555~----333~--------------|
A-5~~---------------------------555~----333~----111~--------------|
E-----------------------------------------------------------------|
Guitar 2
e-----------------------------------------------------------------|
B-----------------------------------------------------------------|
G-----------------------------------------------------------------|
D-----------------------------------------------------------------|
A-5-5-5-5-5-5-5-5-5-5-5-5-5-5-5-5-5-5-5-3-3-3-3-1-1-0-1-0-1-0-----|
E-------------------------------------------------------------1-0-|

Verse 1 (continued)              
Guitar 1
e-----3-------3-------5-------5-|-----3-------3--------------------|
B-----3-------3-------6-------6-|-----3-------3--------------------|
G-----3-------3---7---7---7---7-|-----3-------3--------------------|
D-5---5---5---5---7---7---7---7-|-5---5---5---5---------0-3~---0---|
A-5-------5-------5-------5-----|-5-------5---------0-3----------3-|
E-3-------3---------------------|-3-------3-------1----------------|

e-----3-------3-------5-------5-----------------------------------|
B-----3-------3-------6-------6-----------------------------------|
G-----3-------3---7---7---7---7---2-2-2-2-2-2-2-2-2-2-2-2-2-2-----|
D-5---5---5---5---7---7---7---7---2-2-2-2-2-2-2-2-2-2-2-2-2-2-----|
A-5-------5-------5-------5-------0-0-0-0-0-0-0-0-0-0-0-0-0-0-----|
E-3-------3---------------------------------------------------7/--|

Chorus
Guitar 1                                                                 X2
e--------------------------------------------------------------------------|
B--------------------------------------------------------------------------|
G-------3-------5-7~~-------------5-----3~~-------------2~~----------------|
D-----3-------5---7~~-------------5-----3~~-------------2~~----------------|
A---3-------5-----5~~-------------3-----1~~-------------0~~----------------|
E-1-------3----------------------------------------------------------------|
Guitar 2
e---------------------------17----------------------^^------------17-15-17~|
B---------------------18-20----20-18-17-15~~--------20--20-----17----------|
G--------------------------------------------------------------------------|
D--------------------------------------------------------------------------|
A--------------------------------------------------------------------------|
E--------------------------------------------------------------------------|

Verse 2 (same as verse 1)
Verse 2 continued (same as verse 2 continued)
Chorus

Solo
Guitar 1                                          X2
e---------------------------------------------------|
B---------------------------------------------------|
G-7-5-7-----2---3~~---------------5-3-5-----10--7~~-|
D-7-5-7-----2---3~~---------------5-3-5-----10--7~~-|
A-5-5-5-----0---1~~-------1-1-1-1-3-3-3-----8---5~~-|
E---------------------------------------------------|
Guitar 2                                  |3rds|
e-------------------------------------------------^-10^-10^---------|
B-6p5-----------------------------^-------------5-8---8---8-6h8p6---|
G-----7-------------7~~-----------7---5-------5------------------7~~|
D-------7~----5p3h5---------------------7--5h7----------------------|
A-------------------------------------------------------------------|
E-------------------------------------------------------------------|

Guitar 2 (continued)     
           ^^                         | 3rds |        ^^ ^^ 
e-10-^^-10-10-------13p10----10h13p10~-101310---13-15-15-15-15p13-----|
B----13-------------------15-----------------13-------------------15~-|
G---------------------------------------------------------------------|
D---------------------------------------------------------------------|
A---------------------------------------------------------------------|
E---------------------------------------------------------------------|

Verse 1 (continued)
Chorus (repeatedly fading out)

Good luck!
Tap to rate this tab
 
# A B C D E F G H I J K L M N O P Q R S T U V W X Y Z