Song name
# A B C D E F G H I J K L M N O P Q R S T U V W X Y Z

Demoniac - Fight The War tab

-=Demoniac -- Fight the war
	   from the Stormblade(1997)

Riff1              1                2
e-----------------|----------------|------------------|
h-----------------|----------------|------------------|
g-----------------|----------------|------------------|
d------------11-12|-11-------------|-14-12-11-9-11-12-|
a-9-999-9999-9--10|-9--999-999-9999|-12-10-9--7-9--10-|
E-7-777-7777------|----------------|------------------|

Riff2
e-------------------------------|
h-------------------------------|
g-------------------------------|
d-------------------------------|
a-9-999-9999-7-5-4-444-444-4444-|
E-7-777-7777-5-3-2-222-222-2222-|

Coda
e-------------------------------------------|
h-------------------------------------------|
g-------------------------------------------|
d-11-12-14-11-11-9-11-12-14-12-11-9-11-12---|
a-9--10-12-10-9--7-9--10-12-10-9--7-9--10-9-|
E-----------------------------------------7-|
Tap to rate this tab
# A B C D E F G H I J K L M N O P Q R S T U V W X Y Z