Demonical - Leipzig 1945 tab

Demonical - Leipzig 1945
Album: - Servants of Unlight - 2007
Swedish death metal 

Guitar tab. 

Throughout the whole song there is just these two riffs
Its highly distorted. Sounds very low. 
As always dont know the tuning - should be half step lower. 


This is the first riff - 
|-----------------------------------------|
|-----------------------------------------|
|-----------------------------------------|
|-----------------------------------------|
|--2-3-2-3-0-0-3-2-3-2-3-6-5-3-2----------|
|--2-3-2-3-0-0-3-2-3-2-3-6-5-3-2----------|
After that comes the second.  
Its almost the same but the end is a bit different. 

|-----------------------------------------|
|-----------------------------------------|
|-----------------------------------------|
|-----------------------------------------|
|--2-3-2-3-0-0-3-2-3-2-3-6-5-3-5-2--------|
|--2-3-2-3-0-0-3-2-3-2-3-6-5-3-5-2--------|

And in the intro and outro there`s the 2nd guitar with this. 
In the intro you cant hear the beginning too well, cause of the battle sounds. 

|--------------------------------------------|
|--------------------------------------------|
|--------------------------------------------|
|--9-12-11-9-12-11-9-12-8-12-11-8-12-11-8-12-|
|--------------------------------------------|
|--------------------------------------------|

Continues beneath - 
|----------------------------------------------|
|----------------------------------------------|
|----------------------------------------------|
|-9-12-11-9-12-11-9-12-12-15-14-12-15-14-12-14-|
|----------------------------------------------|
|----------------------------------------------|






Tabbed by M1kk
Any questions or problems relating to my tabs  - psy-cho@hotmail.com - EMAIL only
Tap to rate this tab
 
# A B C D E F G H I J K L M N O P Q R S T U V W X Y Z