Song name
# A B C D E F G H I J K L M N O P Q R S T U V W X Y Z

Demonical - All Will Perish The Final Liberation tab

-----------------------------------------------------------------------------
                ALL WILL PERISH (THE FINAL LIBERATION) - Demonical
-----------------------------------------------------------------------------

Tuning: B Standard (for 6-string guitars): B E A D F# B

 |-----------------|
 |-----------------|
 |-----------------|
 |-----------------|
 |-5-5-----4-4-----|
 |-3-3-----2-2-----|
PM . .     . .

 |----------------------------------------------------|
 |----------------------------------------------------|
 |----------------------------------------------------|
 |----------------------------------------------------|
 |-----10---7~~~~~~~~---10---9---7---9---10---6-------|
 |-0--------------------------------------------------|

 |----------------------------------------------------|
 |----------------------------------------------------|
 |----------------------------------------------------|
 |----------------------------------------7-----------|
 |-----10---7~~~~~~~~---10---9---7---10-------9-------|
 |-0--------------------------------------------------|

 |----------------------------------------------------|
 |----------------------------------------------------|
 |----------------------------------------------------|
 |----------------------------------------------------|
 |-----10---7~~~~~~~~---10---9---7---9---10---6-------|
 |-0--------------------------------------------------|

 |-----------------------------------|
 |-----------------------------------|
 |-----------------------------------|
 |-----------------------------------|
 |-----10---7~~~~~~~~---10---9---7---|
 |-0---------------------------------|

 |-----------------|
 |-----------------|
 |-----------------|
 |-----------------|
 |-5-5-----4-4-----|
 |-3-3-----2-2-----|
PM . .     . .

 |----------------------------------------------------|
 |----------------------------------------------------|
 |----------------------------------------------------|
 |----------------------------------------------------|
 |-----10---7~~~~~~~~---10---9---7---9---10---6-------|
 |-0--------------------------------------------------|

 |----------------------------------------------------|
 |----------------------------------------------------|
 |----------------------------------------------------|
 |----------------------------------------7-----------|
 |-----10---7~~~~~~~~---10---9---7---10-------9-------|
 |-0--------------------------------------------------|

 |----------------------------------------------------|
 |----------------------------------------------------|
 |----------------------------------------------------|
 |----------------------------------------------------|
 |-----10---7~~~~~~~~---10---9---7---9---10---6-------|
 |-0--------------------------------------------------|

 |-----------------------------------|
 |-----------------------------------|
 |-----------------------------------|
 |-----------------------------------|
 |-----10---7~~~~~~~~---10---9---7---|
 |-0---------------------------------|

 |-----------------|
 |-----------------|
 |-----------------|
 |-----------------|
 |-5-5-5-5-4-4-4-4-|
 |-3-3-3-3-2-2-2-2-|

 |-------------------------------------------------------|
 |-------------------------------------------------------|
 |-------------------------------------------------------|
 |-------------------------------------------------------|
 |-----10-10-7-7-7-7-7-7-10-10-9-9-7-7-9-9-10-10-6-6-6-6-|
 |-0-0---------------------------------------------------|

 |-------------------------------------------------------|
 |-------------------------------------------------------|
 |-------------------------------------------------------|
 |-------------------------------------------7-7---------|
 |-----10-10-7-7-7-7-7-7-10-10-9-9-7-7-10-10-----9-9-9-9-|
 |-0-0---------------------------------------------------|

 |-------------------------------------------------------|
 |-------------------------------------------------------|
 |-------------------------------------------------------|
 |-------------------------------------------------------|
 |-----10-10-7-7-7-7-7-7-10-10-9-9-7-7-9-9-10-10-6-6-6-6-|
 |-0-0---------------------------------------------------|

 |---------------------------------|
 |---------------------------------|
 |---------------------------------|
 |---------------------------------|
 |-----10-10-7-7-7-7-7-7-10-10-9-9-|
 |-0-0-----------------------------|

 |-----------------|
 |-----------------|
 |-----------------|
 |-----------------|
 |-5-5-----4-4-----|
 |-3-3-----2-2-----|
PM . .     . .

 |-----------------------------------------------------------------|
 |-----------------------------------------------------------------|
 |-----------------------------------------------------------------|
 |-2---(2)---(2)---(2)---(2)---(2)-2~~~~~~~~~~~~~~~~~~~~~~~~~--2---|
 |-2---(2)---(2)---(2)---(2)---(2)-----------------------------2---|
 |-0---(0)---(0)---(0)---(0)---(0)-----------------------------0---|
PM                                                             .

 |-----------------------------------------------------------------|
 |-----------------------------------------------------------------|
 |-----------------------------------------------------------------|
 |-2---(2)---(2)---(2)---(2)---(2)-5---(5)---(5)---(5)---(5)---(5)-|
 |-2---(2)---(2)---(2)---(2)---(2)-5---(5)---(5)---(5)---(5)---(5)-|
 |-0---(0)---(0)---(0)---(0)---(0)-3---(3)---(3)---(3)---(3)---(3)-|

 |-----------------------------------------------------------------|
 |-----------------------------------------------------------------|
 |-----------------------------------------------------------------|
 |-2---(2)---(2)---(2)---(2)---(2)-2---(2)---(2)---(2)---(2)---2---|
 |-2---(2)---(2)---(2)---(2)---(2)-2---(2)---(2)---(2)---(2)---2---|
 |-0---(0)---(0)---(0)---(0)---(0)-0---(0)---(0)---(0)---(0)---0---|
PM                                                             .

 |-----------------------------------------------------------------|
 |-----------------------------------------------------------------|
 |-----------------------------------------------------------------|
 |-2---(2)---(2)---(2)---(2)---4---5---(5)---(5)---3---(3)---(3)---|
 |-2---(2)---(2)---(2)---(2)---4---5---(5)---(5)---3---(3)---(3)---|
 |-0---(0)---(0)---(0)---(0)---2---3---(3)---(3)---1---(1)---(1)---|

 |-----------------------------------------------------------------|
 |-----------------------------------------------------------------|
 |-----------------------------------------------------------------|
 |-2---(2)---(2)---(2)---(2)---(2)-2~~~~~~~~~~~~~~~~~~~~~~~~~--2---|
 |-2---(2)---(2)---(2)---(2)---(2)-----------------------------2---|
 |-0---(0)---(0)---(0)---(0)---(0)-----------------------------0---|
PM                                                             .

 |-----------------------------------------------------------------|
 |-----------------------------------------------------------------|
 |-----------------------------------------------------------------|
 |-2---(2)---(2)---(2)---(2)---(2)-5---(5)---(5)---(5)---(5)---(5)-|
 |-2---(2)---(2)---(2)---(2)---(2)-5---(5)---(5)---(5)---(5)---(5)-|
 |-0---(0)---(0)---(0)---(0)---(0)-3---(3)---(3)---(3)---(3)---(3)-|

 |-----------------------------------------------------------------|
 |-----------------------------------------------------------------|
 |-----------------------------------------------------------------|
 |-2---(2)---(2)---(2)---(2)---(2)-2---(2)---(2)---(2)---(2)---2---|
 |-2---(2)---(2)---(2)---(2)---(2)-2---(2)---(2)---(2)---(2)---2---|
 |-0---(0)---(0)---(0)---(0)---(0)-0---(0)---(0)---(0)---(0)---0---|
PM                                                             .

 |-----------------------------------------------------------------|
 |-----------------------------------------------------------------|
 |-----------------------------------------------------------------|
 |-2---(2)---(2)---(2)---(2)---4---5---5---5---5---3---3---3---3---|
 |-2---(2)---(2)---(2)---(2)---4---5---5---5---5---3---3---3---3---|
 |-0---(0)---(0)---(0)---(0)---2---3---3---3---3---1---1---1---1---|

 |------------------------------------------------------------------------|
 |------------------------------------------------------------------------|
 |------------------------------------------------------------------------|
 |-----------------------------------------------------9---12-------------|
 |-9---9---9---9---9---9---9---9---10---10---10---10---7---10---10---10---|
 |-7---7---7---7---7---7---7---7----8----8----8----8-------------8----8---|

 |----------------------------------------------------------------------|
 |----------------------------------------------------------------------|
 |----------------------------------------------------------------------|
 |----------------------------------------------------------------------|
 |-9---9---9---9---9---9---9---9---10---10---10---10---7---10---7---7---|
 |-7---7---7---7---7---7---7---7----8----8----8----8---5----8---5---5---|

 |------------------------------------------------------------------------|
 |------------------------------------------------------------------------|
 |------------------------------------------------------------------------|
 |-----------------------------------------------------9---12-------------|
 |-9---9---9---9---9---9---9---9---10---10---10---10---7---10---10---10---|
 |-7---7---7---7---7---7---7---7----8----8----8----8-------------8----8---|

 |------------------------------------------------------------------------|
 |------------------------------------------------------------------------|
 |------------------------------------------------------------------------|
 |-------------------------------------12---14---11-------7-------8-------|
 |-9---9---9---9---10---10---10---10---10---12----9-------5-------6-------|
 |-7---7---7---7----8----8----8----8--------------------------------------|

 |--------------------------------------------------------------------|
 |--------------------------------------------------------------------|
 |--------------------------------------------------------------------|
 |----------------------------------------------------7---9-----------|
 |---------10~~~~-----------10---9-----------10---------------7-------|
 |-0-0-0-0----------0-0-0-0----------0-0-0-0--------------------------|
PM . . . .          . . . .          . . . .

 |------------------------------------------------------------------|
 |------------------------------------------------------------------|
 |------------------------------------------------------------------|
 |------------------------------------------------------------------|
 |-0-0-0-0-0-0-0-0-0-0-0-0-----------------9---10-----------9---7---|
 |-------------------------0-0-0-0-0-0-0-0-7----8---0-0-0-0-7---5---|
PM                                 . . . .          . . . .

 |--------------------------------------------------------------------|
 |--------------------------------------------------------------------|
 |--------------------------------------------------------------------|
 |----------------------------------------------------7---9-----------|
 |---------10~~~~-----------10---9-----------10---------------7-------|
 |-0-0-0-0----------0-0-0-0----------0-0-0-0--------------------------|
PM . . . .          . . . .          . . . .

 |------------------------------------------------------------------|
 |------------------------------------------------------------------|
 |------------------------------------------------------------------|
 |------------------------------------------------------------------|
 |-0-0-0-0-0-0-0-0-0-0-0-0-----------------9---10-----------9---7---|
 |-------------------------0-0-0-0-0-0-0-0-7----8---0-0-0-0-7---5---|
PM                                 . . . .          . . . .

 |----------------------------------------------------|
 |----------------------------------------------------|
 |----------------------------------------------------|
 |----------------------------------------------------|
 |-----10---7~~~~~~~~---10---9---7---9---10---6-------|
 |-0--------------------------------------------------|

 |----------------------------------------------------|
 |----------------------------------------------------|
 |----------------------------------------------------|
 |----------------------------------------7-----------|
 |-----10---7~~~~~~~~---10---9---7---10-------9-------|
 |-0--------------------------------------------------|

 |----------------------------------------------------|
 |----------------------------------------------------|
 |----------------------------------------------------|
 |----------------------------------------------------|
 |-----10---7~~~~~~~~---10---9---7---9---10---6-------|
 |-0--------------------------------------------------|

 |-----------------------------------|
 |-----------------------------------|
 |-----------------------------------|
 |-----------------------------------|
 |-----10---7~~~~~~~~---10---9---7---|
 |-0---------------------------------|

 |-----------------|
 |-----------------|
 |-----------------|
 |-----------------|
 |-5-5-----4-4-----|
 |-3-3-----2-2-----|
PM . .     . .

 |-----------------------------------------------------------------|
 |-----------------------------------------------------------------|
 |-----------------------------------------------------------------|
 |-2---(2)---(2)---(2)---(2)---(2)-2~~~~~~~~~~~~~~~~~~~~~~~~~--2---|
 |-2---(2)---(2)---(2)---(2)---(2)-----------------------------2---|
 |-0---(0)---(0)---(0)---(0)---(0)-----------------------------0---|
PM                                                             .

 |-----------------------------------------------------------------|
 |-----------------------------------------------------------------|
 |-----------------------------------------------------------------|
 |-2---(2)---(2)---(2)---(2)---(2)-5---(5)---(5)---(5)---(5)---(5)-|
 |-2---(2)---(2)---(2)---(2)---(2)-5---(5)---(5)---(5)---(5)---(5)-|
 |-0---(0)---(0)---(0)---(0)---(0)-3---(3)---(3)---(3)---(3)---(3)-|

 |-----------------------------------------------------------------|
 |-----------------------------------------------------------------|
 |-----------------------------------------------------------------|
 |-2---(2)---(2)---(2)---(2)---(2)-2---(2)---(2)---(2)---(2)---2---|
 |-2---(2)---(2)---(2)---(2)---(2)-2---(2)---(2)---(2)---(2)---2---|
 |-0---(0)---(0)---(0)---(0)---(0)-0---(0)---(0)---(0)---(0)---0---|
PM                                                             .

 |-----------------------------------------------------------------|
 |-----------------------------------------------------------------|
 |-----------------------------------------------------------------|
 |-2---(2)---(2)---(2)---(2)---4---5---5---5---5---3---3---3---3---|
 |-2---(2)---(2)---(2)---(2)---4---5---5---5---5---3---3---3---3---|
 |-0---(0)---(0)---(0)---(0)---2---3---3---3---3---1---1---1---1---|

 |------------------------------------------------------------------------|
 |------------------------------------------------------------------------|
 |------------------------------------------------------------------------|
 |-----------------------------------------------------9---12-------------|
 |-9---9---9---9---9---9---9---9---10---10---10---10---7---10---10---10---|
 |-7---7---7---7---7---7---7---7----8----8----8----8-------------8----8---|

 |----------------------------------------------------------------------|
 |----------------------------------------------------------------------|
 |----------------------------------------------------------------------|
 |----------------------------------------------------------------------|
 |-9---9---9---9---9---9---9---9---10---10---10---10---7---10---7---7---|
 |-7---7---7---7---7---7---7---7----8----8----8----8---5----8---5---5---|

 |------------------------------------------------------------------------|
 |------------------------------------------------------------------------|
 |------------------------------------------------------------------------|
 |-----------------------------------------------------9---12-------------|
 |-9---9---9---9---9---9---9---9---10---10---10---10---7---10---10---10---|
 |-7---7---7---7---7---7---7---7----8----8----8----8-------------8----8---|

 |------------------------------------------------------------------------|
 |------------------------------------------------------------------------|
 |------------------------------------------------------------------------|
 |-------------------------------------12---14---11-------7-------8-------|
 |-9---9---9---9---10---10---10---10---10---12----9-------5-------6-------|
 |-7---7---7---7----8----8----8----8--------------------------------------|

 |--------------------------------------------------------------------|
 |--------------------------------------------------------------------|
 |--------------------------------------------------------------------|
 |----------------------------------------------------7---9-----------|
 |---------10~~~~-----------10---9-----------10---------------7-------|
 |-0-0-0-0----------0-0-0-0----------0-0-0-0--------------------------|
PM . . . .          . . . .          . . . .

 |------------------------------------------------------------------|
 |------------------------------------------------------------------|
 |------------------------------------------------------------------|
 |------------------------------------------------------------------|
 |-0-0-0-0-0-0-0-0-0-0-0-0-----------------9---10-----------9---7---|
 |-------------------------0-0-0-0-0-0-0-0-7----8---0-0-0-0-7---5---|
PM                                 . . . .          . . . .

 |--------------------------------------------------------------------|
 |--------------------------------------------------------------------|
 |--------------------------------------------------------------------|
 |----------------------------------------------------7---9-----------|
 |---------10~~~~-----------10---9-----------10---------------7-------|
 |-0-0-0-0----------0-0-0-0----------0-0-0-0--------------------------|
PM . . . .          . . . .          . . . .

 |------------------------------------------------------------------|
 |------------------------------------------------------------------|
 |------------------------------------------------------------------| Pause
 |------------------------------------------------------------------| briefly
 |-0-0-0-0-0-0-0-0-0-0-0-0-----------------9---10---5-5-x---7-7-x---|
 |-------------------------0-0-0-0-0-0-0-0-7----8---3-3-x---5-5-x---|
PM                                 . . . .          . .     . .

 |-----------------------------------------------------------------|
 |-----------------------------------------------------------------|
 |-----------------------------------------------------------------|
 |---------------------------------------------------------5---4---|
 |-2---2-2-3---3-3-2---2-2-3---2---2---2-2-3---3-3-2---2-2-3---2---|
 |-0---0-0-1---1-1-0---0-0-1---0---0---0-0-1---1-1-0---0-0---------|
PM     . .     . .     . .             . .     . .     . .

 |-------------------------------------------------------------------|
 |-------------------------------------------------------------------|
 |-------------------------------------------------------------------|
 |-----------------------------------------5---4---9---8---12---11---|
 |-2---2-2-3---3-3-2---2-2-3---2---2---2-2-3---2---7---6---10----9---|
 |-0---0-0-1---1-1-0---0-0-1---0---0---0-0---------------------------|
PM     . .     . .     . .             . .

 |-----------------------------------------------------------------|
 |-----------------------------------------------------------------|
 |-----------------------------------------------------------------|
 |---------------------------------------------------------5---4---|
 |-2---2-2-3---3-3-2---2-2-3---2---2---2-2-3---3-3-2---2-2-3---2---|
 |-0---0-0-1---1-1-0---0-0-1---0---0---0-0-1---1-1-0---0-0---------|
PM     . .     . .     . .             . .     . .     . .

 |-------------------------------------------------------------------|
 |-------------------------------------------------------------------|
 |-------------------------------------------------------------------|
 |-----------------------------------------5---4---9---8---12---11---|
 |-2---2-2-3---3-3-2---2-2-3---2---2---2-2-3---2---7---6---10----9---|
 |-0---0-0-1---1-1-0---0-0-1---0---0---0-0---------------------------|
PM     . .     . .     . .             . .

 |-----------------------------------------------------------------|
 |-----------------------------------------------------------------|
 |-----------------------------------------------------------------|
 |-----------------------------------------------------------------|
 |-----------------------------------------------------------------|
 |-5-----------2---1-----------4---5-----------2---1-------3p2h3p2-|

 |-----------------------------------------------------------------|
 |-----------------------------------------------------------------|
 |-----------------------------------------------------------------|
 |-----------------------------------------------------------------|
 |-----------------------------------------------------------------|
 |-5-----------2---1-----------4---5-----------2---1-------3p2h3p2-|

 |-----------------------------------------------------------------|
 |-----------------------------------------------------------------|
 |-----------------------------------------------------------------|
 |---------------------------------------------------------5---4---|
 |-2---2-2-3---3-3-2---2-2-3---2---2---2-2-3---3-3-2---2-2-3---2---|
 |-0---0-0-1---1-1-0---0-0-1---0---0---0-0-1---1-1-0---0-0---------|
PM     . .     . .     . .             . .     . .     . .

 |-------------------------------------------------------------------|
 |-------------------------------------------------------------------|
 |-------------------------------------------------------------------|
 |-----------------------------------------5---4---9---8---12---11---|
 |-2---2-2-3---3-3-2---2-2-3---2---2---2-2-3---2---7---6---10----9---|
 |-0---0-0-1---1-1-0---0-0-1---0---0---0-0---------------------------|
PM     . .     . .     . .             . .

 |-----------------------------------------------------------------|
 |-----------------------------------------------------------------|
 |-----------------------------------------------------------------|
 |-----------------------------------------------------------------|
 |-----------------------------------------------------------------|
 |-8-8-8-8-7-7-5-5-4-4-4-4-4-4-4-4-8-8-8-8-7-7-5-5-4-4-4-4-7-7-7-7-|

 |-----------------------------------------------------------------|
 |-----------------------------------------------------------------|
 |-----------------------------------------------------------------|
 |-----------------------------------------------------------------|
 |---------------------------------------------------------9-------|
 |-8-8-8-8-7-7-5-5-4-4-4-4-4-4-4-4-8-8-8-8-7-7-5-5-4-4-4-4-7---x---|

 |-------------------------------------------------------------------|
 |-------------------------------------------------------------------|
 |-------------------------------------------------------------------|
 |-------------------------------------------------------------------|
 |-10-------9---7---6---------------10-------9---7---6-------9-------|
 |--8-------7---5---4----------------8-------7---5---4-------7-------|

 |-------------------------------------------------------------------|
 |-------------------------------------------------------------------|
 |-------------------------------------------------------------------|
 |-------------------------------------------------------------------|
 |-10-------9---7---6---------------10-------9---7---6-------9-------|
 |--8-------7---5---4----------------8-------7---5---4-------7-------|

 |--------------------------------------------------------------------|
 |--------------------------------------------------------------------|
 |--------------------------------------------------------------------|
 |----------------------------------------------------7---9-----------|
 |---------10~~~~-----------10---9-----------10---------------7-------|
 |-0-0-0-0----------0-0-0-0----------0-0-0-0--------------------------|
PM . . . .          . . . .          . . . .

 |------------------------------------------------------------------|
 |------------------------------------------------------------------|
 |------------------------------------------------------------------|
 |------------------------------------------------------------------|
 |-0-0-0-0-0-0-0-0-0-0-0-0-----------------9---10-----------9---7---|
 |-------------------------0-0-0-0-0-0-0-0-7----8---0-0-0-0-7---5---|
PM                                 . . . .          . . . .

 |--------------------------------------------------------------------|
 |--------------------------------------------------------------------|
 |--------------------------------------------------------------------|
 |----------------------------------------------------7---9-----------|
 |---------10~~~~-----------10---9-----------10---------------7-------|
 |-0-0-0-0----------0-0-0-0----------0-0-0-0--------------------------|
PM . . . .          . . . .          . . . .

 |------------------------------------------------------------------|
 |------------------------------------------------------------------|
 |------------------------------------------------------------------|
 |------------------------------------------------------------------|
 |-0-0-0-0-0-0-0-0-0-0-0-0-----------------9---10-----------9---7---|
 |-------------------------0-0-0-0-0-0-0-0-7----8---0-0-0-0-7---5---|
PM                                 . . . .          . . . .

 |--------------------------------------------------------------------|
 |--------------------------------------------------------------------|
 |--------------------------------------------------------------------|
 |----------------------------------------------------7---9-----------|
 |---------10~~~~-----------10---9-----------10---------------7-------|
 |-0-0-0-0----------0-0-0-0----------0-0-0-0--------------------------|
PM . . . .          . . . .          . . . .

 |------------------------------------------------------------------|
 |------------------------------------------------------------------|
 |------------------------------------------------------------------|
 |------------------------------------------------------------------|
 |-0-0-0-0-0-0-0-0-0-0-0-0-----------------9---10-----------9---7---|
 |-------------------------0-0-0-0-0-0-0-0-7----8---0-0-0-0-7---5---|
PM                                 . . . .          . . . .

 |--------------------------------------------------------------------|
 |--------------------------------------------------------------------|
 |--------------------------------------------------------------------|
 |----------------------------------------------------7---9-----------|
 |---------10~~~~-----------10---9-----------10---------------7-------|
 |-0-0-0-0----------0-0-0-0----------0-0-0-0--------------------------|
PM . . . .          . . . .          . . . .

 |------------------------------------------------------------------|
 |------------------------------------------------------------------|
 |------------------------------------------------------------------| Pause
 |------------------------------------------------------------------| briefly
 |-0-0-0-0-0-0-0-0-0-0-0-0-----------------9---10---5-5-x---7-7-x---|
 |-------------------------0-0-0-0-0-0-0-0-7----8---3-3-x---5-5-x---|
PM                                 . . . .          . .     . .

 |----------------------------------------------------|
 |----------------------------------------------------|
 |----------------------------------------------------|
 |----------------------------------------------------|
 |-----10---7~~~~~~~~---10---9---7---9---10---6-------|
 |-0--------------------------------------------------|

 |----------------------------------------------------|
 |----------------------------------------------------|
 |----------------------------------------------------|
 |----------------------------------------7-----------|
 |-----10---7~~~~~~~~---10---9---7---10-------9-------|
 |-0--------------------------------------------------|

 |----------------------------------------------------|
 |----------------------------------------------------|
 |----------------------------------------------------|
 |----------------------------------------------------|
 |-----10---7~~~~~~~~---10---9---7---9---10---6-------|
 |-0--------------------------------------------------|

 |--------------------------------------|
 |--------------------------------------|
 |--------------------------------------|
 |--------------------------------------|
 |-----10---7~~~~~~~~---10----9----7----|
 |-0------------------------------------|

 |--------------------------------------------------------------------------|
 |--------------------------------------------------------------------------|
 |--------------------------------------------------------------------------|
 |--------------------------------------------------------------------------|
 |-5---5-----4---4--------2---(2)---(2)---(2)---(2)---(2)---(2)---(2)---(2)-|
 |-3---3-----2---2--------0---(0)---(0)---(0)---(0)---(0)---(0)---(0)---(0)-|
PM .   .     .   .



************************************

| h   hammer-on
| p   pull-off
| ~   vibrato
| x   mute note
| (#) let ring

************************************
Tap to rate this tab
 
# A B C D E F G H I J K L M N O P Q R S T U V W X Y Z