Guitaretab - guitar tabs
Song name
# A B C D E F G H I J K L M N O P Q R S T U V W X Y Z

Demons And Wizards - Loves Tragedy Asunder tab

                        Love's Tragedy Asunder
                          Demons and Wizards

PM= Palm Mute      > = Accent        L = Tied note (see previous note)

Acoustic Guitar
Tune down 1 step (DGCFAD)

INTRO/VERSE

FIGURE 1 X2


D||--------------0-----------|--------------------------|
A||--------1-----------1-----|--0--1-----0--1-----1-----|
F||-----2-----2-----2-----2--|--------2--------2-----2--|
C||--------------------------|--------------------------|
G||--0-----------------------|--------------------------|
D||--------------------------|--------------------------|


-------------0-----------|--------------------------|
-------0--------0--0-----|--0--0-----0--0-----0-----|
--0-------0-----------0--|--------0--------0-----0--|
-------------------------|--------------------------|
-------------------------|--------------------------|
-------------------------|--------------------------|

FIGURE 2 X1

-------------0-----------|--3--------0-------------|
----------0-----0--------|-----0----------0--------|
-------2-----------2-----|--------2----------2-----|
--3-------------------3--|----------------------3--|
-------------------------|-------------------------|
-------------------------|-------------------------|

-----------0-------------|--3--------0-------------|
--------0-------0--------|-----0----------0--------|
-----0-------------2-----|--------0----------0-----|
--2-------------------2--|----------------------2--|
-------------------------|-------------------------|
-------------------------|-------------------------|

Repeat above during intro and verses

Distorted Guitar
Standard Tuning (EADGBE)

PRE-CHORUS/CHORUS

FIGURE 3


    PM PM PM PM PM PM PM PM    PM PM PM PM PM PM PM

E||--------------------------|--------------------------|
B||--------------------------|--------------------------|
G||--------------------------|--------------------------|
D||--2--2--2--2--2--2--2--2--|--2--2--2--2--5--4--------|
A||--0--0--0--0--0--0--0--0--|--0--0--0--0--3--2--5--7--|
E||--------------------------|--------------------3--5--|

FIGURE 4 x2

       PM PM PM PM    PM           PM PM PM PM PM     PM

|-------------------------------|--------------------------------|
|-------------------------------|--------------------------------|
|*------------------------------|--------------------------------|
|*-----------------9-----9--10--|-----------------10-----10--10--|
|------7--7--7--7--7--7--7---8--|--7--7--7--7--7---8--8---8---8--|
|------5--5--5--5---------------|--5--5--5--5--5-----------------|


  PM PM PM PM PM     PM            PM PM PM PM PM  PM PM PM PM

--------------------------------|-------------------------------||
--------------------------------|-------------------------------||
--------------------------------|------------------------------*||
-----------------10-----10--12--|------------------------------*||
--7--7--7--7--7---8--8---8--10--|--7--7--7--7--7--10--9--5--7---||
--5--5--5--5--5-----------------|--5--5--5--5--5---8--7--3--5---||


FIGURE 5

       PM PM                                    PM

--------------------------|--------------------------|
-------------10--8-----6--|-----8-----5----6---------|
--------------9--7-----5--|-----7-----4----5---------|
-------7--7---7--5-----3--|-----5-----2----3---------|
-------7--7---------------|--------------------------|
-------5--5---------------|---------------------5--5-|


       PM PM                                     PM PM

--------------------------|------------------------------|
-------------10--8-----6--|-----8-----5----6--6----------|
--------------9--7-----5--|-----7-----4----5--5----------|
--7-----------7--5-----3--|-----5-----2----3--3----------|
--7----7--7---------------|------------------------------|
--5----5--5---------------|----------------------5--5----|


       PM PM                                    PM

--------------------------|--------------------------|
-------------10--8-----6--|-----8-----5----6---------|
--------------9--7-----5--|-----7-----4----5---------|
--7-----------7--5-----3--|-----5-----2----3---------|
--7----7--7---------------|--------------------------|
--5----5--5---------------|---------------------5--5-|


       PM PM

--------------------------|------------------------|-------------------||
-------------10--8-----6--|-----8-----5----6--6----|-------------------||
--------------9--7-----5--|-----7-----4----5--5----|-------------------||
--7-----------7--5-----3--|-----5-----2----3--3----|--7----------------||
--7----7--7---------------|------------------------|--7----------------||
--5----5--5---------------|------------------------|--5----------------||

After 2nd chorus there is a break, distorted guitar plays 16th notes on 3rd fret of low 
string until solo.

SOLO  Carries on through final chorus.

E||-----------------------|--------------------------|
B||-----------------------|--------------------------|
G||-----------------------|--------------------------|
D||-----------------------|--7--7-----7-----7--------|
A||-----------------------|--------------------------|
E||--------------5--5--5--|--------5-----5-----5--5--|
[ Tab from: http://www.guitaretab.com/d/demons-and-wizards/106790.html ]
-----------------------------|---------------------------------|
-----------------------------|---------------------------------|
-----------------------------|-----------------------------12--|
--/12--12--14--14----L~------|--L--12s-14-12--10--9----10------|
-----------------------------|---------------------------------|
-----------------------------|---------------------------------|

-----------------------------------|--------------------------------|
-----------------------------------|------------------------17--20--|
--L--12--12b--12pb~--L----16--16b--|---L--L~--L--L--L\--17----------|
-----------------------------------|--------------------------------|
-----------------------------------|--------------------------------|
-----------------------------------|--------------------------------|

-----------------19b------L--19s-20-|--19~--------L--19--20--20b--|
--20b--20pb--20---------------------|-----------------------------|
------------------------------------|-----------------------------|
------------------------------------|-----------------------------|
------------------------------------|-----------------------------|
------------------------------------|-----------------------------|

---L------20s-19s-20--L~----17--|
--------------------------------|
--------------------------------|
--------------------------------|
--------------------------------|
--------------------------------|

--20-19-17----19-17-------------------------------|---------------------|
-----------20-------20-17-20-18-17----18-17----17-|--L--------L~--------|
-----------------------------------19-------19----|---------------------|
--------------------------------------------------|---------------------|
--------------------------------------------------|---------------------|
--------------------------------------------------|---------------------|

-------------------|-------|----------------------17--|
--L----------------|-------|--------------17--20------|
-------------------|-------|--------------------------|
-------------------|-------|--------------------------|
-------------------|-------|--------------------------|
-------------------|-------|--------------------------|

--17~----15--17~--------L--|--L--------L-----/20----|
---------------------------|------------------------|
---------------------------|------------------------|
---------------------------|------------------------|
---------------------------|------------------------|
---------------------------|------------------------|

--19----19-20---------------|-------------------|-----------|
--------------17--------L~--|--L----------------|-----------|
----------------------------|-------------------|-----------|
----------------------------|-------------------|-----------|
----------------------------|-------------------|-----------|
----------------------------|-------------------|-----------|

--------------------------|--20b---20-20s-17---------------------|
------------------20--22--|------------------20b--20b------17----|
--------------21----------|-----------------------------------19-|
--------------------------|--------------------------------------|
--------------------------|--------------------------------------|
--------------------------|--------------------------------------|


------------------------------------------------------|--------------------|
----------------------------------------------20--22--|--22----------------|
--21-19-17-21-19-17-21-19-17-21-19-17-19--21----------|--------------------|
------------------------------------------------------|--------------------|
------------------------------------------------------|--------------------|
------------------------------------------------------|--------------------|

-------|--22b------22s-20-20b------20s-19-|--19b------19s-17-17b------L-19-|
-------|----------------------------------|--------------------------------|
-------|----------------------------------|--------------------------------|
-------|----------------------------------|--------------------------------|
-------|----------------------------------|--------------------------------|
-------|----------------------------------|--------------------------------|

--20--------19--------20----|------19--------20br----19--20--|
--------17--------17--------|--17--------17------------------|
----------------------------|--------------------------------|
----------------------------|--------------------------------|
----------------------------|--------------------------------|
----------------------------|--------------------------------|

--20--------19--------20----|------19--------20br----19--20--|
--------17--------17--------|--17--------17------------------|
----------------------------|--------------------------------|
----------------------------|--------------------------------|
----------------------------|--------------------------------|
----------------------------|--------------------------------|

--20--------19--------20----|------19--------20br----19--20--|
--------17--------17--------|--17--------17------------------|
----------------------------|--------------------------------|
----------------------------|--------------------------------|
----------------------------|--------------------------------|
----------------------------|--------------------------------|


--20--------19--------20----|------19--------20br----19--20--|
--------17--------17--------|--17--------17------------------|
----------------------------|--------------------------------|
----------------------------|--------------------------------|
----------------------------|--------------------------------|
----------------------------|--------------------------------|

--20~----------------||
---------------------||
---------------------||
---------------------||
---------------------||
---------------------||
Related for Loves Tragedy Asunder tab