Song name
# A B C D E F G H I J K L M N O P Q R S T U V W X Y Z

Demons And Wizards - Heaven Denies tab

#----------------------------------PLEASE NOTE---------------------------------#
#This file is the author's own work and represents their interpretation of the #
#song. You may only use this file for private study, scholarship, or research. #
#------------------------------------------------------------------------------#

HEAVEN DENIES
As recorded by Demons & Wizards
(From the 1999 Album DEMONS & WIZARDS)

Transcribed by Francis Gagné
	

Words and Music by Schaffer / Kürsch

C5
x 3 5 5 x x
	
D5
x 0 0 x x x
	
D5V
x 5 7 7 x x
	
E5
0 2 2 x x x

F5
1 3 3 x x x
	
F5(type 2)
x 3 3 x x x
	
F
x x 3 2 x x
	
B/F
x x 3 4 x x

F5III
x x 3 5 x x
	
G5
3 5 5 x x x
	
G5V
x 5 5 x x x
	
A/G
x x 5 2 x x

G
x x 5 4 x x
	
C/G
x x 5 5 x x
	
G5V(type 2)
x x 5 7 x x
	
A5
x 0 2 2 x x

A5V
5 7 7 x x x
	
A5VII
x x 7 9 x x
	
F/A
x x 7 10 x x
	
D/AVII
x x 7 7 x x

B5
x 2 4 4 x x
	
G/B
x 2 5 x x x

Gtr I (Eb Ab Db Gb Bb Eb) - 'Rhythm 1'
Gtr II (Eb Ab Db Gb Bb Eb) - 'Rhythm 2'
Gtr III (Eb Ab Db Gb Bb Eb) - 'Rhythm 3'
Gtr IV (Eb Ab Db Gb Bb Eb) - 'Lead'
Gtr V (Eb Ab Db Gb Bb Eb) - 'Harmony'

   Intro
    Q=190
    E               F         E               G
   4/4
    Gtrs I, II
    PM-----------------------------------------------------
    E S S E E S S E S S S S   E S S E E S S E  S  S  S  S
||--------------------------|-----------------------------|
||o-------------------------|-----------------------------|
||--------------------------|-----------------------------|
||--------------------------|-----------------------------|
||o-7-7-7-7-7-7-7-7-8-8-8-8-|-7-7-7-7-7-7-7-7-10-10-10-10-|
||--------------------------|-----------------------------|


  E               F         G           A           F
 ---------------------------------------------------------|
  E S S E E S S E S S S S    E  S  S  E  E  S  S  E S S S S
|-------------------------|-----------------------------------||
|-------------------------|----------------------------------o||
|-------------------------|-----------------------------------||
|-------------------------|-----------------------------------||
|-7-7-7-7-7-7-7-7-8-8-8-8-|-10-10-10-10-12-12-12-12-8-8-8-8--o||
|-------------------------|-----------------------------------||


   Pre-Verse
    $
    C5                           G/B
   4/4
    Gtr III
    W                            W
    |                            |
    /                            /

    Gtr V
            PM                           PM
    E  S S  E Q      E Q         E  S S  E Q      E  Q
||-----------------------------|--------------------------------|
||o-8-10p8----8-----10-8-------|-8-10p8----8--------------------|
||---------10------------------|--------10-------10--9----------|
||-----------------------------|--------------------------------|
||o----------------------------|--------------------------------|
||-----------------------------|--------------------------------|
|
|   Gtr IV
|           PM                           PM
|   E  S S  E Q      E Q         E  S S  E Q      E  Q
||-----------------------------|--------------------------------|
||o----------------------------|--------------------------------|
||--9-10p9----9-----10-9-------|-9-10p9----9--------------------|
||---------12------------------|--------12-------12-10----------|
||o----------------------------|--------------------------------|
||-----------------------------|--------------------------------|
|
|   Gtrs I, II
|   PM-----------------------------------------------------------
|   E  S S  E E S S  E S S S S   E  S S  E E S S  E  S  S  S  S
||-----------------------------|--------------------------------|
||o----------------------------|--------------------------------|
||-----------------------------|--------------------------------|
||-----------------------------|--------------------------------|
||o-7--7-7--7-7-7-7--7-8-8-8-8-|-7--7-7--7-7-7-7--7-10-10-10-10-|
||-----------------------------|--------------------------------|


  A5
  W                            +W
  |                             |
  /                             /

          PM                             PM    PM---|
  E  S S  E Q      E Q          E  S  S  E  E  E     E Q
|----------------------------|-----------------------------------||
|-8-10p8----8-----10-8-------|--8-10p=8-----8-------------------o||
|--------10------------------|----------10----10-----9-7---------||
|----------------------------|-----------------------------------||
|----------------------------|----------------------------------o||
|----------------------------|-----------------------------------||
|
|         PM                             PM    PM---|
| E  S S  E Q      E Q          E  S  S  E  E  E     E Q
|----------------------------|-----------------------------------||
|----------------------------|----------------------------------o||
|-9-10p9----9-----10-9-------|--9-10p=9-----9--------------------||
|--------12------------------|----------12----12----10-9---------||
|----------------------------|----------------------------------o||
|----------------------------|-----------------------------------||
|
|------------------------------------------------------------|
| E  S S  E E S S  E S S S S    E  S  S  E  E  S  S  E S S S S
|----------------------------|-----------------------------------||
|----------------------------|----------------------------------o||
|----------------------------|-----------------------------------||
|----------------------------|-----------------------------------||
|-7--7-7--7-7-7-7--7-8-8-8-8-|-10-10-10-10-12-12-12-12-8-8-8-8--o||
|----------------------------|-----------------------------------||


 Verse
  E                 F   E                 G
  Gtr IV
  W                     W
|---------------------|---------------------|
|---------------------|---------------------|
|-9-------------------|-4-------------------|
|---------------------|---------------------|
|---------------------|---------------------|
|---------------------|---------------------|
|
| Gtrs I, II
| PM-----------------------------------------
| E S S E E S S E E E   E S S E E S S E E E
|---------------------|---------------------|
|---------------------|---------------------|
|---------------------|---------------------|
|---------------------|---------------------|
|---------------------|---------------------|
|-0-0-0-0-0-0-0-0-0-1-|-0-0-0-0-0-0-0-0-0-3-|


  E                 F   G5    A5V   F5
  W                     Q.    Q.    Q
|---------------------|----------------|
|---------------------|----------------|
|-5-------------------|-7-----5-----4--|
|---------------------|----------------|
|---------------------|----------------|
|---------------------|----------------|
|
|-------------------|
| E S S E E S S E E E   Q   E Q   E Q
|---------------------|----------------|
|---------------------|----------------|
|---------------------|----------------|
|---------------------|-5---x-7---x-3--|
|---------------------|-5---x-7---x-3--|
|-0-0-0-0-0-0-0-0-0-1-|-3---x-5---x-1--|


  E                 F   E                    G
  W                     Q.       Q.        Q
|---------------------|------------------------|
|---------------------|------------------------|
|-2-------------------|-0--------2--------/5---|
|---------------------|------------------------|
|---------------------|------------------------|
|---------------------|------------------------|
|
| PM--------------------------------------------
| E S S E E S S E E E   E  S S E E  S S E  E E
|---------------------|------------------------|
|---------------------|------------------------|
|---------------------|------------------------|
|---------------------|------------------------|
|---------------------|------------------------|
|-0-0-0-0-0-0-0-0-0-1-|-0--0-0-0-0--0-0-0--0-3-|


  E                 F   G5     A5V  F5
  W                     +W
|---------------------|----------------|
|---------------------|----------------|
|-4-------------------|-(4)------------|
|---------------------|----------------|
|---------------------|----------------|
|---------------------|----------------|
|
|-------------------|
| E S S E E S S E E E    Q   E Q  E Q
|---------------------|----------------|
|---------------------|----------------|
|---------------------|----------------|
|---------------------|--5---x-7--x-3--|
|---------------------|--5---x-7--x-3--|
|-0-0-0-0-0-0-0-0-0-1-|--3---x-5--x-1--|


                                1.
    D5         F5(type 2G5VF5(typE52)
                                 PM--|                 PM
    W           H     E  E  Q    E E  E E  E E  E E    E E E E E  E E  E
||-----------|-----------------|--------------------|----------------------||
||o----------|-----------------|--------------------|---------------------o||
||--7--------|-10----10s12s10--|-9-7----7-----------|----------------------||
||-----------|-----------------|-----10---10-9-10-9-|-10-9-7-9-7----7------||
||o----------|-----------------|--------------------|------------10---10--o||
||-----------|-----------------|--------------------|----------------------||
|
|                                     PM     PM---|        PM     PM--|
|   W           H     E  E  Q    q    e q    E  E e    q   e q    E E  e
||-----------|-----------------|--------------------|----------------------||
||o----------|-----------------|--------------------|---------------------o||
||-----------|-----------------|--------------------|----------------------||
||--0--------|--3-----3s=5s=3--|-2------2-----------|--2-----2-------------||
||o-0--------|--3-----3s=5s=3--|-2------2-----------|--2-----2------------o||
||-----------|-----------------|-0----0-0----0--0-0-|--0---0-0----0-0--0---||


  2.
  E                 F   E                 G
  W                     W
|---------------------|---------------------|
|---------------------|---------------------|
|-9-------------------|-4-------------------|
|---------------------|---------------------|
|---------------------|---------------------|
|---------------------|---------------------|
|
| PM-----------------------------------------
| E S S E E S S E E E   E S S E E S S E E E
|---------------------|---------------------|
|---------------------|---------------------|
|---------------------|---------------------|
|---------------------|---------------------|
|---------------------|---------------------|
|-0-0-0-0-0-0-0-0-0-1-|-0-0-0-0-0-0-0-0-0-3-|


  E                 F   G5    A5V   F5
  W                     Q.    Q.    Q
|---------------------|----------------|
|---------------------|----------------|
|-5-------------------|-7-----5-----4--|
|---------------------|----------------|
|---------------------|----------------|
|---------------------|----------------|
|
|-------------------|
| E S S E E S S E E E   Q   E Q   E Q
|---------------------|----------------|
|---------------------|----------------|
|---------------------|----------------|
|---------------------|-5---x-7---x-3--|
|---------------------|-5---x-7---x-3--|
|-0-0-0-0-0-0-0-0-0-1-|-3---x-5---x-1--|


  E                 F   E                    G
  W                     Q.       Q.        Q
|---------------------|------------------------|
|---------------------|------------------------|
|-2-------------------|-0--------2--------/5---|
|---------------------|------------------------|
|---------------------|------------------------|
|---------------------|------------------------|
|
| PM--------------------------------------------
| E S S E E S S E E E   E  S S E E  S S E  E E
|---------------------|------------------------|
|---------------------|------------------------|
|---------------------|------------------------|
|---------------------|------------------------|
|---------------------|------------------------|
|-0-0-0-0-0-0-0-0-0-1-|-0--0-0-0-0--0-0-0--0-3-|


  E                 F   G5     A5V  F5
  W                     +W
|---------------------|----------------|
|---------------------|----------------|
|-4-------------------|-(4)------------|
|---------------------|----------------|
|---------------------|----------------|
|---------------------|----------------|
|
|-------------------|
| E S S E E S S E E E    Q   E Q  E Q
|---------------------|----------------|
|---------------------|----------------|
|---------------------|----------------|
|---------------------|--5---x-7--x-3--|
|---------------------|--5---x-7--x-3--|
|-0-0-0-0-0-0-0-0-0-1-|--3---x-5--x-1--|


   Pre-Chorus
                                1.
    D5         F5(type 2G5VF5(typE52)
                                 PM--|                 PM
    W           H     E  E  Q    E E  E E  E E  E E    E E E E E  E E  E
||-----------|-----------------|--------------------|----------------------||
||o----------|-----------------|--------------------|---------------------o||
||--7--------|-10----10s12s10--|-9-7----7-----------|----------------------||
||-----------|-----------------|-----10---10-9-10-9-|-10-9-7-9-7----7------||
||o----------|-----------------|--------------------|------------10---10--o||
||-----------|-----------------|--------------------|----------------------||
|
|                                     PM     PM---|        PM     PM--|
|   W           H     E  E  Q    q    e q    E  E e    q   e q    E E  e
||-----------|-----------------|--------------------|----------------------||
||o----------|-----------------|--------------------|---------------------o||
||-----------|-----------------|--------------------|----------------------||
||--0--------|--3-----3s=5s=3--|-2------2-----------|--2-----2-------------||
||o-0--------|--3-----3s=5s=3--|-2------2-----------|--2-----2------------o||
||-----------|-----------------|-0----0-0----0--0-0-|--0---0-0----0-0--0---||


 Chorus
  2.
  A5VII                       F/A
  Gtrs I, II
    PM----|   PM----|   PM|      PM----|    PM----|    PM|
  E S S S S E S S S S E S S    E S S S S  E S S S S  E S S
|---------------------------|-------------------------------|
|---------------------------|-------------------------------|
|-9---------9---------9-----|-10---------10---------10------|
|-7-7-7-7-7-7-7-7-7-7-7-7-7-|--7-7-7-7-7--7-7-7-7-7--7-7-7--|
|---------------------------|-------------------------------|
|---------------------------|-------------------------------|


  D/AVII                      A5VII
    PM----|   PM----|   PM|     PM----|   PM----|   PM|
  E S S S S E S S S S E S S   E S S S S E S S S S E S S
|---------------------------|----------------------------|
|---------------------------|----------------------------|
|-7---------7---------7-----|-9---------9---------9------|
|-7-7-7-7-7-7-7-7-7-7-7-7-7-|-7-7-7-7-7-7-7-7-7-7-7-7-7--|
|---------------------------|----------------------------|
|---------------------------|----------------------------|


  A/G       G         C/G     G5V(type 2C/G       G
    PM----|   PM----|   PM|     PM----|   PM----|   PM|
  E S S S S E S S S S E S S   E S S S S E S S S S E S S
|---------------------------|----------------------------|
|---------------------------|----------------------------|
|-2---------4---------5-----|-7---------5---------4------|
|-5-5-5-5-5-5-5-5-5-5-5-5-5-|-5-5-5-5-5-5-5-5-5-5-5-5-5--|
|---------------------------|----------------------------|
|---------------------------|----------------------------|


  F                           B/F       F5III     B/F
    PM----|   PM----|   PM|     PM----|   PM----|   PM|
  E S S S S E S S S S E S S   E S S S S E S S S S E S S
|---------------------------|----------------------------|
|---------------------------|----------------------------|
|-2---------2---------2-----|-4---------5---------4------|
|-3-3-3-3-3-3-3-3-3-3-3-3-3-|-3-3-3-3-3-3-3-3-3-3-3-3-3--|
|---------------------------|----------------------------|
|---------------------------|----------------------------|


  A5VII                        F/A
  Gtr IV
   W                            W
|----------------------------|-------------------------------|
|-10-------------------------|-12----------------------------|
|----------------------------|-------------------------------|
|----------------------------|-------------------------------|
|----------------------------|-------------------------------|
|----------------------------|-------------------------------|
|
| Gtrs I, II
|    PM----|   PM----|   PM|      PM----|    PM----|    PM|
|  E S S S S E S S S S E S S    E S S S S  E S S S S  E S S
|----------------------------|-------------------------------|
|----------------------------|-------------------------------|
|--9---------9---------9-----|-10---------10---------10------|
|--7-7-7-7-7-7-7-7-7-7-7-7-7-|--7-7-7-7-7--7-7-7-7-7--7-7-7--|
|----------------------------|-------------------------------|
|----------------------------|-------------------------------|


  D/AVII                                   A5VII
   Q          +Q       +Q         E  E      W
|----------------------------------------|-----------------------------|
|-13b15======(13)-----(13)r======13p12h==|=13--------------------------|
|----------------------------------------|-----------------------------|
|----------------------------------------|-----------------------------|
|----------------------------------------|-----------------------------|
|----------------------------------------|-----------------------------|
|
|        PM-------|     PM-----|     PM|      PM----|   PM----|   PM|
|  E     S S   S  S E   S  S S S  E  S S    E S S S S E S S S S E S S
|----------------------------------------|-----------------------------|
|----------------------------------------|-----------------------------|
|--7----------------7-------------7------|--9---------9---------9------|
|--7-----7-7---7--7-7---7--7-7-7--7--7-7-|--7-7-7-7-7-7-7-7-7-7-7-7-7--|
|----------------------------------------|-----------------------------|
|----------------------------------------|-----------------------------|


  A/G              G           C/G      G5V(type 2) C/G         G
   E     +Q         Q.          Q        Q.          Q.          Q
|-19b20-(19)-------19----------17-----|-------------17----------19------|
|-------------------------------------|-20------------------------------|
|-------------------------------------|---------------------------------|
|-------------------------------------|---------------------------------|
|-------------------------------------|---------------------------------|
|-------------------------------------|---------------------------------|
|
|         PM-----|     PM----|    PM|       PM----|     PM----|    PM|
|  E      S  S S S  E  S S S S  E S S    E  S S S S  E  S S S S  E S S
|-------------------------------------|---------------------------------|
|-------------------------------------|---------------------------------|
|--2----------------4-----------5-----|--7-----------5-----------4------|
|--5------5--5-5-5--5--5-5-5-5--5-5-5-|--5--5-5-5-5--5--5-5-5-5--5-5-5--|
|-------------------------------------|---------------------------------|
|-------------------------------------|---------------------------------|


  F                                             B/F         F5III       B/F
                                  |---3---|
   Q          +E      Q.          E  E    E      Q.          Q.          Q
|---------------------------------------------|--------------------------------|
|-20b22======(20)r---20----------18h20p==18---|-17----------18----------20-----|
|---------------------------------------------|--------------------------------|
|---------------------------------------------|--------------------------------|
|---------------------------------------------|--------------------------------|
|---------------------------------------------|--------------------------------|
|
|        PM--------|     PM----|       PM---|       PM----|     PM----|    PM|
|  E     S S   S   S  E  S S S S  E    S    S    E  S S S S  E  S S S S  E S S
|---------------------------------------------|--------------------------------|
|---------------------------------------------|--------------------------------|
|--2------------------2-----------2-----------|--4-----------5-----------4-----|
|--3-----3-3---3---3--3--3-3-3-3--3----3----3-|--3--3-3-3-3--3--3-3-3-3--3-3-3-|
|---------------------------------------------|--------------------------------|
|---------------------------------------------|--------------------------------|


                                                       To Coda
  A5VII                        F/A
   W                            +W
|-17-------------------------|-(17)----------------------------|
|----------------------------|---------------------------------|
|----------------------------|---------------------------------|
|----------------------------|---------------------------------|
|----------------------------|---------------------------------|
|----------------------------|---------------------------------|
|
|    PM----|   PM----|   PM|        PM----|    PM----|    PM|
|  E S S S S E S S S S E S S     E  S S S S  E S S S S  E S S
|----------------------------|---------------------------------|
|----------------------------|---------------------------------|
|--9---------9---------9-----|--10----------10---------10------|
|--7-7-7-7-7-7-7-7-7-7-7-7-7-|---7--7-7-7-7--7-7-7-7-7--7-7-7--|
|----------------------------|---------------------------------|
|----------------------------|---------------------------------|


  D/AVII                      A5VII
  Gtrs I, II
    PM----|   PM----|   PM|     PM----|   PM----|   PM|
  E S S S S E S S S S E S S   E S S S S E S S S S E S S
|---------------------------|----------------------------|
|---------------------------|----------------------------|
|-7---------7---------7-----|-9---------9---------9------|
|-7-7-7-7-7-7-7-7-7-7-7-7-7-|-7-7-7-7-7-7-7-7-7-7-7-7-7--|
|---------------------------|----------------------------|
|---------------------------|----------------------------|


  A/G       G         C/G     G5V(type 2C/G       G
    PM----|   PM----|   PM|     PM----|   PM----|   PM|
  E S S S S E S S S S E S S   E S S S S E S S S S E S S
|---------------------------|----------------------------|
|---------------------------|----------------------------|
|-2---------4---------5-----|-7---------5---------4------|
|-5-5-5-5-5-5-5-5-5-5-5-5-5-|-5-5-5-5-5-5-5-5-5-5-5-5-5--|
|---------------------------|----------------------------|
|---------------------------|----------------------------|


                                          D.S. al Coda
  F                           B/F       F5III     B/F
    PM----|   PM----|   PM|     PM----|   PM----|   PM|
  E S S S S E S S S S E S S   E S S S S E S S S S E S S
|---------------------------|----------------------------|
|---------------------------|----------------------------|
|-2---------2---------2-----|-4---------5---------4------|
|-3-3-3-3-3-3-3-3-3-3-3-3-3-|-3-3-3-3-3-3-3-3-3-3-3-3-3--|
|---------------------------|----------------------------|
|---------------------------|----------------------------|


  &
  D/AVII                      A5VII
  Gtr IV
  W                           H             Q        E  E
|---------------------------|-------------/15-------13-12----|
|---------------------------|--------------------------------|
|---------------------------|--------------------------------|
|---------------------------|--------------------------------|
|---------------------------|--------------------------------|
|---------------------------|--------------------------------|
|
| Gtrs I, II
|   PM----|   PM----|   PM|     PM----|     PM----|     PM|
| E S S S S E S S S S E S S   E S S S S E   S S S S  E  S S
|---------------------------|--------------------------------|
|---------------------------|--------------------------------|
|-7---------7---------7-----|-9---------9------------9-------|
|-7-7-7-7-7-7-7-7-7-7-7-7-7-|-7-7-7-7-7-7---7-7-7-7--7--7-7--|
|---------------------------|--------------------------------|
|---------------------------|--------------------------------|


  A/G        G         C/G     G5V(type 2)  C/G         G
   W                            +H              Q        E  E
|----------------------------|----------------/13-------12-------|
|-15-------------------------|-(15)------------------------15----|
|----------------------------|-----------------------------------|
|----------------------------|-----------------------------------|
|----------------------------|-----------------------------------|
|----------------------------|-----------------------------------|
|
|    PM----|   PM----|   PM|        PM----|     PM----|     PM|
|  E S S S S E S S S S E S S     E  S S S S E   S S S S  E  S S
|----------------------------|-----------------------------------|
|----------------------------|-----------------------------------|
|--2---------4---------5-----|---7----------5------------4-------|
|--5-5-5-5-5-5-5-5-5-5-5-5-5-|---5--5-5-5-5-5---5-5-5-5--5--5-5--|
|----------------------------|-----------------------------------|
|----------------------------|-----------------------------------|


  F                            B/F          F5III     B/F
   W                            +W
|----------------------------|-------------------------------|
|-13-------------------------|-(13)--------------------------|
|----------------------------|-------------------------------|
|----------------------------|-------------------------------|
|----------------------------|-------------------------------|
|----------------------------|-------------------------------|
|
|    PM----|   PM----|   PM|        PM----|   PM----|   PM|
|  E S S S S E S S S S E S S     E  S S S S E S S S S E S S
|----------------------------|-------------------------------|
|----------------------------|-------------------------------|
|--2---------2---------2-----|---4----------5---------4------|
|--3-3-3-3-3-3-3-3-3-3-3-3-3-|---3--3-3-3-3-3-3-3-3-3-3-3-3--|
|----------------------------|-------------------------------|
|----------------------------|-------------------------------|


  A5VII                        F/A
   W                            W
|----------------------------|-------------------------------|
|-10-------------------------|-12----------------------------|
|----------------------------|-------------------------------|
|----------------------------|-------------------------------|
|----------------------------|-------------------------------|
|----------------------------|-------------------------------|
|
|    PM----|   PM----|   PM|      PM----|    PM----|    PM|
|  E S S S S E S S S S E S S    E S S S S  E S S S S  E S S
|----------------------------|-------------------------------|
|----------------------------|-------------------------------|
|--9---------9---------9-----|-10---------10---------10------|
|--7-7-7-7-7-7-7-7-7-7-7-7-7-|--7-7-7-7-7--7-7-7-7-7--7-7-7--|
|----------------------------|-------------------------------|
|----------------------------|-------------------------------|


  D/AVII                                   A5VII
   Q          +Q       +Q         E  E      H.                    E  E
|----------------------------------------|--------------------------------|
|-13b15======(13)-----(13)r======13p12h==|=13--------------------12h13----|
|----------------------------------------|--------------------------------|
|----------------------------------------|--------------------------------|
|----------------------------------------|--------------------------------|
|----------------------------------------|--------------------------------|
|
|        PM-------|     PM-----|     PM|       PM----|   PM----|     PM|
|  E     S S   S  S E   S  S S S  E  S S    E  S S S S E S S S S  E  S S
|----------------------------------------|--------------------------------|
|----------------------------------------|--------------------------------|
|--7----------------7-------------7------|--9----------9----------9-------|
|--7-----7-7---7--7-7---7--7-7-7--7--7-7-|--7--7-7-7-7-7-7-7-7-7--7--7-7--|
|----------------------------------------|--------------------------------|
|----------------------------------------|--------------------------------|


  A/G        G         C/G     G5V(type 2)  C/G       G
   W                            +H.                    E  E
|----------------------------|---------------------------------|
|-12-------------------------|-(12)-------------------12h13----|
|----------------------------|---------------------------------|
|----------------------------|---------------------------------|
|----------------------------|---------------------------------|
|----------------------------|---------------------------------|
|
|    PM----|   PM----|   PM|        PM----|   PM----|     PM|
|  E S S S S E S S S S E S S     E  S S S S E S S S S  E  S S
|----------------------------|---------------------------------|
|----------------------------|---------------------------------|
|--2---------4---------5-----|---7----------5----------4-------|
|--5-5-5-5-5-5-5-5-5-5-5-5-5-|---5--5-5-5-5-5-5-5-5-5--5--5-5--|
|----------------------------|---------------------------------|
|----------------------------|---------------------------------|


  F                            B/F          F5III     B/F
   W                            +H.                    E  E
|----------------------------|---------------------------------|
|-10-------------------------|-(10)-------------------12h13----|
|----------------------------|---------------------------------|
|----------------------------|---------------------------------|
|----------------------------|---------------------------------|
|----------------------------|---------------------------------|
|
|    PM----|   PM----|   PM|        PM----|   PM----|     PM|
|  E S S S S E S S S S E S S     E  S S S S E S S S S  E  S S
|----------------------------|---------------------------------|
|----------------------------|---------------------------------|
|--2---------2---------2-----|---4----------5----------4-------|
|--3-3-3-3-3-3-3-3-3-3-3-3-3-|---3--3-3-3-3-3-3-3-3-3--3--3-3--|
|----------------------------|---------------------------------|
|----------------------------|---------------------------------|


 Outro
  Q=90
  A5V
   W           W            W
|-----------|------------|--------|
|-10--------|------------|--------|
|-----------|------------|--------|
|-----------|------------|--------|
|-----------|------------|--------|
|-----------|------------|--------|
|
|              >
|  W          +W           +W
|-----------|------------|--------|
|-----------|------------|--------|
|-----------|------------|--------|
|--7--------|-(7)--------|-(7)----|
|--7--------|-(7)--------|-(7)----|
|--5--------|-(5)--------|-(5)----|


  N.C.
  Wx51
|---------*|
|---------*|
|---------*|
|---------*|
|---------*|
|---------*|



Duration Legend
---------------
W - whole; H - half; Q - quarter; E - 8th; S - 16th; T - 32nd; X - 64th; a - acciaccatura
+ - note tied to previous; . - note dotted; .. - note double dotted
Uncapitalized letters represent notes that are staccato (1/2 duration)
Irregular groupings are notated above the duration line
Duration letters will always appear directly above the note/fret number it represents the
duration for.  Duration letters with no fret number below them represent rests.  Multi-
bar rests are notated in the form Wxn, where n is the number of bars to rest for.  Low
melody durations appear below the staff

Tablature Legend
----------------
 h   - hammer-on
 p   - pull-off
 b   - bend
 pb  - pre-bend
 r   - bend release (if no number after the r, then release immediately)
 /\  - slide into or out of (from/to "nowhere")
 s   - legato slide
 S   - shift slide
 - natural harmonic
[n]  - artificial harmonic
n(n) - tapped harmonic
 ~   - vibrato
 tr  - trill
 T   - tap
 TP  - trem. picking
 PM  - palm muting
\n/  - tremolo bar dip; n = amount to dip
 \n  - tremolo bar down
 n/  - tremolo bar up
/n\  - tremolo bar inverted dip
 =   - hold bend; also acts as connecting device for hammers/pulls
 <> - volume swell (louder/softer)
 x   - on rhythm slash represents muted slash
 o   - on rhythm slash represents single note slash

Misc Legend
-----------
 |  - bar
||  - double bar
||o - repeat start
o|| - repeat end
*|  - double bar (ending)
 :  - bar (freetime)
 $  - Segno
 &  - Coda
Tempo markers -  = BPM(8/16=s8/s16), where s8 = swing 8ths, s16 = swing 16ths

Tap to rate this tab
# A B C D E F G H I J K L M N O P Q R S T U V W X Y Z