Song name
# A B C D E F G H I J K L M N O P Q R S T U V W X Y Z

Demons And Wizards - Beneath These Waves tab

#----------------------------------PLEASE NOTE---------------------------------#
#This file is the author's own work and represents their interpretation of the #
#song. You may only use this file for private study, scholarship, or research. #
#------------------------------------------------------------------------------#

BENEATH THESE WAVES
As recorded by Demons & Wizards
(From the 2005 Album TOUCHED BY THE CRIMSON KING)

Transcribed by Russ Elton (webmaster@abysslord.com)
	

Words and Music by Jon Schaffer/Hansi Kürsch
Arranged by Russ Elton (webmaster@abysslord.com)

Gtr I (Eb Ab Db Gb Bb Eb) - 'Distortion Guitar'
Gtr II (Eb Ab Db Gb Bb Eb) - 'Distortion Guitar'
Gtr III (Eb Ab Db Gb Bb Eb) - 'Lead Guitar'
Gtr IV (Eb Ab Db Gb Bb Eb) - 'Clean Guitar'

 Intro/Verse
  Q=186
  Em                                 Bm/D
 4/4
  Gtr II
                                   PM
  W                +H        +E  E E E
|----------------|---------------------|
|-0--------------|-(0)-------(0)-----0-|
|----------------|---------------------|
|-5--------------|-(5)-------(5)-5---4-|
|-7--------------|-(7)-------(7)-7-5-5-|
|----------------|---------------------|
|
| Gtr I
|    PM----------------------|     PM
| Q  E E E E E E    E  E E E  E  E E E
|----------------|---------------------|
|-0--------------|-------------------0-|
|----------------|---------------------|
|-5--------------|---------------5---4-|
|-7--7-7-7-7-7-7-|--7--7-7-7--7--7-5-5-|
|----------------|---------------------|


                                       Cmaj7
                                     PM
  +W                 +H        +E  E E E
|------------------|---------------------|
|-(0)--------------|-(0)-------(0)-----0-|
|------------------|---------------------|
|-(4)--------------|-(4)-------(4)-4---2-|
|-(5)--------------|-(5)-------(5)-5-3-3-|
|------------------|---------------------|
|
|      PM----------------------|     PM
| +Q   E E E E E E    E  E E E  E  E E E
|------------------|---------------------|
|-(0)--------------|-------------------0-|
|------------------|---------------------|
|-(4)--------------|---------------4---2-|
|-(5)--5-5-5-5-5-5-|--5--5-5-5--5--5-3-3-|
|------------------|---------------------|


                                       A5/E             G/B              Em
                                     PM               PM               PM
  +W                 +H        +E  E E E   +H.        E E   +H.        E E
|------------------|---------------------|----------------|----------------|
|-(0)--------------|-(0)-------(0)-------|--------------0-|-(0)----------0-|
|------------------|-------------------2-|-(2)------------|----------------|
|-(2)--------------|-(2)-------(2)-2---2-|-(2)----------5-|-(5)----------5-|
|-(3)--------------|-(3)-------(3)-3-0---|------------0-2-|-(2)----------7-|
|------------------|---------------------|----------------|------------0---|
|
|      PM----------------------|     PM           PM--|            PM--|
| +Q   E E E E E E    E  E E E  E  E E E   +H     E E E E   +H     E E E E
|------------------|---------------------|----------------|----------------|
|-(0)--------------|---------------------|--------------0-|-(0)----------0-|
|------------------|-------------------2-|-(2)------------|----------------|
|-(2)--------------|---------------2---2-|-(2)----------5-|-(5)----------5-|
|-(3)--3-3-3-3-3-3-|--3--3-3-3--3--3-0---|--------0-0-0-2-|-(2)----3-5---7-|
|------------------|---------------------|----------------|------------0---|


                                         Bm/D
                                       PM
    +W                 +H        +E  E E E
||-------------------|---------------------|
||o-(0)--------------|-(0)-------(0)-----0-|
||-------------------|---------------------|
||--(5)--------------|-(5)-------(5)-5---4-|
||o-(7)--------------|-(7)-------(7)-7-5-5-|
||-------------------|---------------------|
|
|        PM----------------------|     PM
|   +Q   E E E E E E    E  E E E  E  E E E
||-------------------|---------------------|
||o-(0)--------------|-------------------0-|
||-------------------|---------------------|
||--(5)--------------|---------------5---4-|
||o-(7)--7-7-7-7-7-7-|--7--7-7-7--7--7-5-5-|
||-------------------|---------------------|


                                       Cmaj7
                                     PM
  +W                 +H        +E  E E E
|------------------|----------------------|
|-(0)--------------|-(0)-------(0)-----0--|
|------------------|----------------------|
|-(4)--------------|-(4)-------(4)-4---2--|
|-(5)--------------|-(5)-------(5)-5-3-3--|
|------------------|----------------------|
|
|      PM----------------------|     PM
| +Q   E E E E E E    E  E E E  E  E E E
|------------------|----------------------|
|-(0)--------------|-------------------0--|
|------------------|----------------------|
|-(4)--------------|---------------4---2--|
|-(5)--5-5-5-5-5-5-|--5--5-5-5--5--5-3-3--|
|------------------|----------------------|


                                       A5/E             G/B              Em
                                     PM               PM               PM
  +W                 +H        +E  E E E   +H.        E E   +H.        E E
|------------------|---------------------|----------------|-----------------||
|-(0)--------------|-(0)-------(0)-------|--------------0-|-(0)----------0-o||
|------------------|-------------------2-|-(2)------------|-----------------||
|-(2)--------------|-(2)-------(2)-2---2-|-(2)----------5-|-(5)----------5--||
|-(3)--------------|-(3)-------(3)-3-0---|------------0-2-|-(2)----------7-o||
|------------------|---------------------|----------------|------------0----||
|
|      PM----------------------|     PM           PM--|            PM--|
| +Q   E E E E E E    E  E E E  E  E E E   +H     E E E E   +H     E E E E
|------------------|---------------------|----------------|-----------------||
|-(0)--------------|---------------------|--------------0-|-(0)----------0-o||
|------------------|-------------------2-|-(2)------------|-----------------||
|-(2)--------------|---------------2---2-|-(2)----------5-|-(5)----------5--||
|-(3)--3-3-3-3-3-3-|--3--3-3-3--3--3-0---|--------0-0-0-2-|-(2)----3-5---7-o||
|------------------|---------------------|----------------|------------0----||


                                       Bm/D
                                     PM
  +W                 +H        +E  E E E
|------------------|---------------------|
|-(0)--------------|-(0)-------(0)-----0-|
|------------------|---------------------|
|-(5)--------------|-(5)-------(5)-5---4-|
|-(7)--------------|-(7)-------(7)-7-5-5-|
|------------------|---------------------|
|
|      PM----------------------|     PM
| +Q   E E E E E E    E  E E E  E  E E E
|------------------|---------------------|
|-(0)--------------|-------------------0-|
|------------------|---------------------|
|-(5)--------------|---------------5---4-|
|-(7)--7-7-7-7-7-7-|--7--7-7-7--7--7-5-5-|
|------------------|---------------------|


                                       Cmaj7
                                     PM
  +W                 +H        +E  E E E
|------------------|---------------------|
|-(0)--------------|-(0)-------(0)-----0-|
|------------------|---------------------|
|-(4)--------------|-(4)-------(4)-4---2-|
|-(5)--------------|-(5)-------(5)-5-3-3-|
|------------------|---------------------|
|
|      PM----------------------|     PM
| +Q   E E E E E E    E  E E E  E  E E E
|------------------|---------------------|
|-(0)--------------|-------------------0-|
|------------------|---------------------|
|-(4)--------------|---------------4---2-|
|-(5)--5-5-5-5-5-5-|--5--5-5-5--5--5-3-3-|
|------------------|---------------------|


                                       A5/E             G/B        N.C.
                                     PM               PM               PM|
  +W                 +H        +E  E E E   +H.        E E   +H.        E E
|------------------|---------------------|----------------|----------------||
|-(0)--------------|-(0)-------(0)-------|--------------0-|-(0)------------||
|------------------|-------------------2-|-(2)------------|----------------||
|-(2)--------------|-(2)-------(2)-2---2-|-(2)----------5-|-(5)------------||
|-(3)--------------|-(3)-------(3)-3-0---|------------0-2-|-(2)------------||
|------------------|---------------------|----------------|------------0-0-||
|
|      PM----------------------|     PM           PM--|            PM----|
| +Q   E E E E E E    E  E E E  E  E E E   +H     E E E E   +H     E E E E
|------------------|---------------------|----------------|----------------||
|-(0)--------------|---------------------|--------------0-|-(0)------------||
|------------------|-------------------2-|-(2)------------|----------------||
|-(2)--------------|---------------2---2-|-(2)----------5-|-(5)------------||
|-(3)--3-3-3-3-3-3-|--3--3-3-3--3--3-0---|--------0-0-0-2-|-(2)----3-5-----||
|------------------|---------------------|----------------|------------0-0-||


   Pre-Chorus
    $
    Em     F#m      G       Am G  F#Em           F#m      G       Am G  F#D
    Gtrs I, II
       PM|    PM|       PM|     PM|          PM|    PM|       PM|     PM|
    Q  E E Q  E E    Q  E E  E  E E E   +Q   E E Q  E E    Q  E E  E  E E E
||----------------|-------------------|-----------------|--------------------|
||o---------------|-------------------|-----------------|--------------------|
||----------------|-------------------|-----------------|--------------------|
||--5------7------|--9------10--9-7-5-|-(5)------7------|--9------10--9-7-4--|
||o-7------9------|-10------12-10-9-7-|-(7)------9------|-10------12-10-9-5--|
||-----0-0----0-0-|-----0-0-----------|------0-0----0-0-|-----0-0------------|


                                                   To Coda
                          Em  C                F5/C    G5/D
                    PM--|   PM
  +W           +Q   E E E E E E   +W           H    Q   Q
|------------|------------------|------------|--------------||
|------------|------------------|------------|-------------o||
|------------|------------------|------------|--------------||
|-(4)--------|-(4)--------5---2-|-(2)--------|-3----3--/5---||
|-(5)--------|-(5)--5-5-5-7-3-3-|-(3)--------|-3----3--/5--o||
|------------|------------------|------------|--------------||


 2nd Verse
  Em                                 Bm/D
  Gtr II
                                   PM
  W                +H        +E  E E E
|----------------|---------------------|
|-0--------------|-(0)-------(0)-----0-|
|----------------|---------------------|
|-5--------------|-(5)-------(5)-5---4-|
|-7--------------|-(7)-------(7)-7-5-5-|
|----------------|---------------------|
|
| Gtr I
|    PM----------------------|     PM
| Q  E E E E E E    E  E E E  E  E E E
|----------------|---------------------|
|-0--------------|-------------------0-|
|----------------|---------------------|
|-5--------------|---------------5---4-|
|-7--7-7-7-7-7-7-|--7--7-7-7--7--7-5-5-|
|----------------|---------------------|


                                       Cmaj7
                                     PM
  +W                 +H        +E  E E E
|------------------|---------------------|
|-(0)--------------|-(0)-------(0)-----0-|
|------------------|---------------------|
|-(4)--------------|-(4)-------(4)-4---2-|
|-(5)--------------|-(5)-------(5)-5-3-3-|
|------------------|---------------------|
|
|      PM----------------------|     PM
| +Q   E E E E E E    E  E E E  E  E E E
|------------------|---------------------|
|-(0)--------------|-------------------0-|
|------------------|---------------------|
|-(4)--------------|---------------4---2-|
|-(5)--5-5-5-5-5-5-|--5--5-5-5--5--5-3-3-|
|------------------|---------------------|


                                       A5/E             G/B              Em
                                     PM               PM               PM
  +W                 +H        +E  E E E   +H.        E E   +H.        E E
|------------------|---------------------|----------------|----------------|
|-(0)--------------|-(0)-------(0)-------|--------------0-|-(0)----------0-|
|------------------|-------------------2-|-(2)------------|----------------|
|-(2)--------------|-(2)-------(2)-2---2-|-(2)----------5-|-(5)----------5-|
|-(3)--------------|-(3)-------(3)-3-0---|------------0-2-|-(2)----------7-|
|------------------|---------------------|----------------|------------0---|
|
|      PM----------------------|     PM           PM--|            PM--|
| +Q   E E E E E E    E  E E E  E  E E E   +H     E E E E   +H     E E E E
|------------------|---------------------|----------------|----------------|
|-(0)--------------|---------------------|--------------0-|-(0)----------0-|
|------------------|-------------------2-|-(2)------------|----------------|
|-(2)--------------|---------------2---2-|-(2)----------5-|-(5)----------5-|
|-(3)--3-3-3-3-3-3-|--3--3-3-3--3--3-0---|--------0-0-0-2-|-(2)----3-5---7-|
|------------------|---------------------|----------------|------------0---|


                                       Bm/D
                                     PM
  +W                 +H        +E  E E E
|------------------|---------------------|
|-(0)--------------|-(0)-------(0)-----0-|
|------------------|---------------------|
|-(5)--------------|-(5)-------(5)-5---4-|
|-(7)--------------|-(7)-------(7)-7-5-5-|
|------------------|---------------------|
|
|      PM----------------------|     PM
| +Q   E E E E E E    E  E E E  E  E E E
|------------------|---------------------|
|-(0)--------------|-------------------0-|
|------------------|---------------------|
|-(5)--------------|---------------5---4-|
|-(7)--7-7-7-7-7-7-|--7--7-7-7--7--7-5-5-|
|------------------|---------------------|


                                       Cmaj7
                                     PM
  +W                 +H        +E  E E E
|------------------|---------------------|
|-(0)--------------|-(0)-------(0)-----0-|
|------------------|---------------------|
|-(4)--------------|-(4)-------(4)-4---2-|
|-(5)--------------|-(5)-------(5)-5-3-3-|
|------------------|---------------------|
|
|      PM----------------------|     PM
| +Q   E E E E E E    E  E E E  E  E E E
|------------------|---------------------|
|-(0)--------------|-------------------0-|
|------------------|---------------------|
|-(4)--------------|---------------4---2-|
|-(5)--5-5-5-5-5-5-|--5--5-5-5--5--5-3-3-|
|------------------|---------------------|


                                                             D.S. al Coda
                                       A5/E             G/B        N.C.
                                     PM               PM               PM|
  +W                 +H        +E  E E E   +H.        E E   +H.        E E
|------------------|---------------------|----------------|----------------||
|-(0)--------------|-(0)-------(0)-------|--------------0-|-(0)------------||
|------------------|-------------------2-|-(2)------------|----------------||
|-(2)--------------|-(2)-------(2)-2---2-|-(2)----------5-|-(5)------------||
|-(3)--------------|-(3)-------(3)-3-0---|------------0-2-|-(2)------------||
|------------------|---------------------|----------------|------------0-0-||
|
|      PM----------------------|     PM           PM--|            PM----|
| +Q   E E E E E E    E  E E E  E  E E E   +H     E E E E   +H     E E E E
|------------------|---------------------|----------------|----------------||
|-(0)--------------|---------------------|--------------0-|-(0)------------||
|------------------|-------------------2-|-(2)------------|----------------||
|-(2)--------------|---------------2---2-|-(2)----------5-|-(5)------------||
|-(3)--3-3-3-3-3-3-|--3--3-3-3--3--3-0---|--------0-0-0-2-|-(2)----3-5-----||
|------------------|---------------------|----------------|------------0-0-||


 Chorus
  &
  E5              F#5    G5   C5              G/B    G5
  Gtrs I, II
  W          Q.   E +Q   Q    W          Q.   E +Q   Q
|----------|----------------|----------|----------------|
|----------|----------------|----------|----------------|
|----------|----------------|----------|----------------|
|----------|----------------|-5--------|-5----5-(5)-----|
|-2--------|-2----4-(4)--5--|-3--------|-3----2-(2)--5--|
|-0--------|-0----2-(2)--3--|----------|-------------3--|


  E5              F#5    G5   C5              G/B    G5
  W          Q.   E +Q   Q    W          Q.   E +Q   Q
|----------|----------------|----------|----------------|
|----------|----------------|----------|----------------|
|----------|----------------|----------|----------------|
|----------|----------------|-5--------|-5----5-(5)-----|
|-2--------|-2----4-(4)--5--|-3--------|-3----2-(2)--5--|
|-0--------|-0----2-(2)--3--|----------|-------------3--|


  A5      N.C.  B5      N.C.  C5      N.C.  D5
          PM|           PM|           PM|
  H.      E E   H.      E E   H.      E E   H.      +Q
|-------------|-------------|-------------|---------------|
|-------------|-------------|-------------|---------------|
|-------------|-------------|-------------|---------------|
|-2-----------|-4-----------|-5-----------|-7-------(7)\--|
|-0---------0-|-2-------0-2-|-3-------2-3-|-5-------(5)\--|
|---------3---|-------------|-------------|---------------|


  E5              F#5    G5   C5              G/B    G5
  W          Q.   E +Q   Q    W          Q.   E +Q   Q
|-0--------|----------------|----------|----------------|
|-0--------|----------------|----------|----------------|
|----------|----------------|----------|----------------|
|-2--------|----------------|-5--------|-5----5-(5)-----|
|-2--------|-2----4-(4)--5--|-3--------|-3----2-(2)--5--|
|-0--------|-0----2-(2)--3--|----------|-------------3--|


  E5              F#5    G5   C5              G/B    G5
  W          Q.   E +Q   Q    W          Q.   E +Q   Q
|----------|----------------|----------|----------------|
|----------|----------------|----------|----------------|
|----------|----------------|----------|----------------|
|----------|----------------|-5--------|-5----5-(5)-----|
|-2--------|-2----4-(4)--5--|-3--------|-3----2-(2)--5--|
|-0--------|-0----2-(2)--3--|----------|-------------3--|


  A5      N.C.  B5      N.C.  C5      N.C.  D5
  Gtr III
  W             W             W             Q  E  E  H
|-------------|-------------|-------------|----------------||
|-------------|-------------|-------------|----------------||
|-------------|-------------|-------------|----------------||
|-------------|-------------|-------------|----------------||
|-------------|-------------|-------------|----------------||
|-------------|-------------|-------------|------/x-17\----||
|
| Gtrs I, II
|         PM|           PM|           PM|
| H.      E E   H.      E E   H.      E E   W
|-------------|-------------|-------------|----------------||
|-------------|-------------|-------------|----------------||
|-------------|-------------|-------------|----------------||
|-2-----------|-4-----------|-5-----------|-7--------------||
|-0---------0-|-2-------0-2-|-3-------2-3-|-5--------------||
|---------3---|-------------|-------------|----------------||


 Guitar Solo
  Em                                                Bm/D
  Gtr III
              PM|   ~~~~~~~~~~~~~~~     PM-------|
   E  +E      E  E  H          +Q.      E  E   E  E  E
|---------------------------|--------------------------|
|---------------------------|--------------------------|
|---------------------------|--------------------------|
|---------------------------|--------------------------|
|---------------------------|--------------------12-14-|
|-12-(12)b14-12-12-12-------|-(12)-----12-14--15-------|
|
| Gtr II
|                                                 PM
|  W                           +H         +E   E  E  E
|---------------------------|--------------------------|
|--0------------------------|--(0)--------(0)--------0-|
|---------------------------|--------------------------|
|--5------------------------|--(5)--------(5)--5-----4-|
|--7------------------------|--(7)--------(7)--7--5--5-|
|---------------------------|--------------------------|
|
| Gtr I
|             PM--------------------------|       PM
|  Q          E  E  E E E E     E  E E  E  E   E  E  E
|---------------------------|--------------------------|
|--0------------------------|------------------------0-|
|---------------------------|--------------------------|
|--5------------------------|------------------5-----4-|
|--7----------7--7--7-7-7-7-|---7--7-7--7--7---7--5--5-|
|---------------------------|--------------------------|


                                                             Cmaj7
                 ~~~~~~~~~~~~~~~~~~~~~~
   |----3-----|
   E     +E   E  Q    +H           +Q.      E  E   +E      E  E
|-------------------------------|-------------------------------|
|-------------------------------|-------------------------------|
|-------------------------------|-------------------------------|
|-------------------------------|-------------------------------|
|-14b15r(14)-12-14---(14)-------|-(14)-----12-14--(14)b15r14-12-|
|-------------------------------|-------------------------------|
|
|                                                          PM
| +W                               +H         +E    E      E  E
|-------------------------------|-------------------------------|
|-(0)---------------------------|--(0)--------(0)-------------0-|
|-------------------------------|-------------------------------|
|-(4)---------------------------|--(4)--------(4)---4---------2-|
|-(5)---------------------------|--(5)--------(5)---5------3--3-|
|-------------------------------|-------------------------------|
|
|                PM---------------------------|            PM
| +Q             E E   E  E E E     E  E E  E  E    E      E  E
|-------------------------------|-------------------------------|
|-(0)---------------------------|-----------------------------0-|
|-------------------------------|-------------------------------|
|-(4)---------------------------|-------------------4---------2-|
|-(5)------------5-5---5--5-5-5-|---5--5-5--5--5----5------3--3-|
|-------------------------------|-------------------------------|


                                                  A5/E
             ~~~~~~~          PM       ~~~~~~~~~~~~~~
   E   E  E  E  +Q.      E    E   E E  E  +H
|--------------------------|------------------------|
|--------------------------|------------------------|
|--------------------------|------------------------|
|--------------------------|------------------------|
|-14--12s10-12-(12)-----10-|-12--10s9-10-(10)-------|
|--------------------------|------------------------|
|
|                                               PM
| +W                         +H           +E  E E E
|--------------------------|------------------------|
|-(0)----------------------|-(0)----------(0)-------|
|--------------------------|----------------------2-|
|-(2)----------------------|-(2)----------(2)-2---2-|
|-(3)----------------------|-(3)----------(3)-3-0---|
|--------------------------|------------------------|
|
|         PM-----------------------------|      PM
| +Q      E  E   E  E E  E    E   E E  E   E  E E E
|--------------------------|------------------------|
|-(0)----------------------|------------------------|
|--------------------------|----------------------2-|
|-(2)----------------------|------------------2---2-|
|-(3)-----3--3---3--3-3--3-|--3---3-3--3---3--3-0---|
|--------------------------|------------------------|


                          G/B                  Em
 ~~~~~~
   +E  E  E  E  +E  Q   a E   +E  E E E E  E E E
|---------------------------|--------------------|
|-----------10-(10)-8---7h8-|-(8)-7--------------|
|--------11-----------------|-------9-7-9s11s9-7-|
|------9--------------------|--------------------|
|-(10)----------------------|--------------------|
|---------------------------|--------------------|
|
|                     PM                     PM
|  +H.                E   E   +H.            E E
|---------------------------|--------------------|
|-------------------------0-|-(0)--------------0-|
|--(2)----------------------|--------------------|
|--(2)--------------------5-|-(5)--------------5-|
|---------------------0---2-|-(2)--------------7-|
|---------------------------|----------------0---|
|
|                PM---|                 PM---|
|  +H            E  E E   E   +H        E  E E E
|---------------------------|--------------------|
|-------------------------0-|-(0)--------------0-|
|--(2)----------------------|--------------------|
|--(2)--------------------5-|-(5)--------------5-|
|----------------0--0-0---2-|-(2)-------3--5---7-|
|---------------------------|----------------0---|


                                                Bm/D
        ~~~~~~~~
   E  E Q   +Q.      E    E   E  E  E  E   E  E  E
|----------------------|-15p=12----14p12-----15p12-|
|-------------------12-|--------12--------12-------|
|--9--7-9---(9)--------|---------------------------|
|----------------------|---------------------------|
|----------------------|---------------------------|
|----------------------|---------------------------|
|
|                                             PM
| +W                     +H           +E   E  E  E
|----------------------|---------------------------|
|-(0)------------------|-(0)----------(0)--------0-|
|----------------------|---------------------------|
|-(5)------------------|-(5)----------(5)--5-----4-|
|-(7)------------------|-(7)----------(7)--7--5--5-|
|----------------------|---------------------------|
|
|       PM----------------------------|       PM
| +Q    E E  E  E E  E    E   E  E  E  E   E  E  E
|----------------------|---------------------------|
|-(0)------------------|-------------------------0-|
|----------------------|---------------------------|
|-(5)------------------|-------------------5-----4-|
|-(7)---7-7--7--7-7--7-|--7---7--7--7--7---7--5--5-|
|----------------------|---------------------------|


                                                                      Cmaj7
                              |---3----|  |---3---|  |---3----|  |---3---|
   E   E  E  E  E  E  E  E    E   E    E  E  E    E  E   E    E  E  E    E
|-----17p12----15p12----12-|-15--14---12-14-12------12----------------------|
|-12--------12-------12----|---------------------15-----15---13-15-13---12--|
|--------------------------|------------------------------------------------|
|--------------------------|------------------------------------------------|
|--------------------------|------------------------------------------------|
|--------------------------|------------------------------------------------|
|
|                                                                PM
| +W                         +H                     +E     E     E    E
|--------------------------|------------------------------------------------|
|-(0)----------------------|-(0)--------------------(0)---------------0-----|
|--------------------------|------------------------------------------------|
|-(4)----------------------|-(4)--------------------(4)----4----------2-----|
|-(5)----------------------|-(5)--------------------(5)----5-----3----3-----|
|--------------------------|------------------------------------------------|
|
|         PM----------------------------------------|            PM
| +Q      E  E  E  E  E  E    E     E     E    E     E     E     E    E
|--------------------------|------------------------------------------------|
|-(0)----------------------|------------------------------------------0-----|
|--------------------------|------------------------------------------------|
|-(4)----------------------|-------------------------------4----------2-----|
|-(5)-----5--5--5--5--5--5-|--5-----5-----5----5-----5-----5-----3----3-----|
|--------------------------|------------------------------------------------|


                                        A5/E
   ~~~                 ~~~
   H        H          H         Q.       E
|-------------------|-----------------------|
|----------12-------|-13--------15\-----/15-|
|-14----------------|-----------------------|
|-------------------|-----------------------|
|-------------------|-----------------------|
|-------------------|-----------------------|
|
|                                     PM
| +W                  +H        +E  E E   E
|-------------------|-----------------------|
|-(0)---------------|-(0)-------(0)---------|
|-------------------|---------------------2-|
|-(2)---------------|-(2)-------(2)-2-----2-|
|-(3)---------------|-(3)-------(3)-3-0-----|
|-------------------|-----------------------|
|
|      PM-----------------------|     PM
| +Q   E E  E E E E    E  E E E  E  E E   E
|-------------------|-----------------------|
|-(0)---------------|-----------------------|
|-------------------|---------------------2-|
|-(2)---------------|---------------2-----2-|
|-(3)--3-3--3-3-3-3-|--3--3-3-3--3--3-0-----|
|-------------------|-----------------------|


                        G/B
   E   E  E  E  E  E  E  E    E   E  E  E  E  S  S  E  E
|-19-----17----------------|-----------------------------||
|-----15-------17-------15-|--------13----12h13p12-------||
|-----------16----16s14----|-14s=12----12----------14-12-||
|--------------------------|-----------------------------||
|--------------------------|-----------------------------||
|--------------------------|-----------------------------||
|
|                     PM
| +H.                 E  E   +W
|--------------------------|-----------------------------||
|------------------------0-|-(0)-------------------------||
|-(2)----------------------|-----------------------------||
|-(2)--------------------5-|-(5)-------------------------||
|---------------------0--2-|-(2)-------------------------||
|--------------------------|-----------------------------||
|
|               PM---|
| +H            E  E  E  E   +W
|--------------------------|-----------------------------||
|------------------------0-|-(0)-------------------------||
|-(2)----------------------|-----------------------------||
|-(2)--------------------5-|-(5)-------------------------||
|---------------0--0--0--2-|-(2)-------------------------||
|--------------------------|-----------------------------||


 Bridge
  E5       F#5      G5       G5F#E5  F#5               G5     A5G5F#D5/A
  Gtr III
   ~~~
   H       H        W                 W                W
|-----------------|----------------|-----------------|----------------|
|-----------------|----------------|-----------------|----------------|
|-----------------|----------------|-----------------|----------------|
|-14\-------------|----------------|-----------------|----------------|
|-----------------|----------------|-----------------|----------------|
|-----------------|----------------|-----------------|----------------|
|
| Gtrs I, II
|      PM|    PM|      PM------|          PM|    PM|      PM------|
|  Q   E E Q  E E   Q  E E E E E E   +Q   E E Q  E E   Q  E E E E E E
|-----------------|----------------|-----------------|----------------|
|-----------------|----------------|-----------------|----------------|
|-----------------|----------------|-----------------|----------------|
|-----------------|----------------|-----------------|----------------|
|--2-------4------|-5------7-5-4-2-|-(2)------4------|-5------7-5-4-5-|
|--0---0-0-2--0-0-|-3--0-0-5-3-2-0-|-(0)--0-0-2--0-0-|-3--0-0-5-3-2-5-|


                          E5/BC5/G             F5/C    G5/D
  Gtrs I, II
                    PM--|
  +W           +Q   E E E E E E   +W           H    Q   Q
|------------|------------------|------------|-------------||
|------------|------------------|------------|-------------||
|------------|------------------|------------|-------------||
|------------|------------------|------------|-3----3--/5--||
|-(5)--------|-(5)--5-5-5-7---3-|-(3)--------|-3----3--/5--||
|-(5)--------|-(5)--5-5-5-7---3-|-(3)--------|-------------||


   Pre-Chorus
    Em     F#m      G       Am G  F#Em           F#m      G       Am G  F#D
       PM|    PM|       PM|     PM|          PM|    PM|       PM|     PM|
    Q  E E Q  E E    Q  E E  E  E E E   +Q   E E Q  E E    Q  E E  E  E E E
||----------------|-------------------|-----------------|--------------------|
||o---------------|-------------------|-----------------|--------------------|
||----------------|-------------------|-----------------|--------------------|
||--5------7------|--9------10--9-7-5-|-(5)------7------|--9------10--9-7-4--|
||o-7------9------|-10------12-10-9-7-|-(7)------9------|-10------12-10-9-5--|
||-----0-0----0-0-|-----0-0-----------|------0-0----0-0-|-----0-0------------|


                          Em  C                F5/C    G5/D
                    PM--|   PM
  +W           +Q   E E E E E E   +W           H    Q   Q
|------------|------------------|------------|--------------||
|------------|------------------|------------|-------------o||
|------------|------------------|------------|--------------||
|-(4)--------|-(4)--------5---2-|-(2)--------|-3----3--/5---||
|-(5)--------|-(5)--5-5-5-7-3-3-|-(3)--------|-3----3--/5--o||
|------------|------------------|------------|--------------||


 Chorus
  E5              F#5    G5   C5              G/B    G5
  W          Q.   E +Q   Q    W          Q.   E +Q   Q
|----------|----------------|----------|----------------|
|----------|----------------|----------|----------------|
|----------|----------------|----------|----------------|
|----------|----------------|-5--------|-5----5-(5)-----|
|-2--------|-2----4-(4)--5--|-3--------|-3----2-(2)--5--|
|-0--------|-0----2-(2)--3--|----------|-------------3--|


  E5              F#5    G5   C5              G/B    G5
  W          Q.   E +Q   Q    W          Q.   E +Q   Q
|----------|----------------|----------|----------------|
|----------|----------------|----------|----------------|
|----------|----------------|----------|----------------|
|----------|----------------|-5--------|-5----5-(5)-----|
|-2--------|-2----4-(4)--5--|-3--------|-3----2-(2)--5--|
|-0--------|-0----2-(2)--3--|----------|-------------3--|


  A5      N.C.  B5      N.C.  C5      N.C.  D5
          PM|           PM|           PM|
  H.      E E   H.      E E   H.      E E   H.      +Q
|-------------|-------------|-------------|---------------|
|-------------|-------------|-------------|---------------|
|-------------|-------------|-------------|---------------|
|-2-----------|-4-----------|-5-----------|-7-------(7)\--|
|-0---------0-|-2-------0-2-|-3-------2-3-|-5-------(5)\--|
|---------3---|-------------|-------------|---------------|


  E5              F#5    G5   C5              G/B    G5
  W          Q.   E +Q   Q    W          Q.   E +Q   Q
|-0--------|----------------|----------|----------------|
|-0--------|----------------|----------|----------------|
|----------|----------------|----------|----------------|
|-2--------|----------------|-5--------|-5----5-(5)-----|
|-2--------|-2----4-(4)--5--|-3--------|-3----2-(2)--5--|
|-0--------|-0----2-(2)--3--|----------|-------------3--|


  E5              F#5    G5   C5              G/B    G5
  W          Q.   E +Q   Q    W          Q.   E +Q   Q
|----------|----------------|----------|----------------|
|----------|----------------|----------|----------------|
|----------|----------------|----------|----------------|
|----------|----------------|-5--------|-5----5-(5)-----|
|-2--------|-2----4-(4)--5--|-3--------|-3----2-(2)--5--|
|-0--------|-0----2-(2)--3--|----------|-------------3--|


  A5      N.C.  B5      N.C.  C5      N.C.  D5
          PM|           PM|           PM|
  H.      E E   H.      E E   H.      E E   W          W
|-------------|-------------|-------------|----------|------||
|-------------|-------------|-------------|----------|------||
|-------------|-------------|-------------|----------|------||
|-2-----------|-4-----------|-5-----------|-7--------|------||
|-0---------0-|-2-------0-2-|-3-------2-3-|-5--------|------||
|---------3---|-------------|-------------|----------|------||


   Outro
    Q=56
    Em                  D/F#      Cadd9               G/B
    Gtr IV
    E S S S S S S S S S S S S E   E S S S S S S S S S S S S E
||--------0---------------------|-----------------------------|
||o---------0-------------------|-------3-1-------------------|
||------------0-----------------|-----0-----0-------0-----0---|
||------2-------2-----2-----0---|---2---------2---2-----0-----|
||o---2-------------2-----0-----|-3-------------3-----2-------|
||--0-------------0-----2-----3-|---------------------------3-|


  Em                  D/F#      Cadd9               G/B
  E S S S S S S S S S S S S E   E S S S S S S S S S S S S E
|-------0---------------------|-----------------------------|
|---------0-------------------|-------3-1-------------------|
|-----------0-----------------|-----0-----0-------0-----0---|
|-----2-------2-----2-----0---|---2---------2---2-----0-----|
|---2-------------2-----0-----|-3-------------3-----2-------|
|-0-------------0-----2-----3-|---------------------------3-|


  Asus2         G/B             Cadd9         Dadd11        N.C.(E)
  E S S S S S S E S S S S S S   E S S S S S S S E E E S  3x W
|-----------------------------|--------------------------||------*|
|-------0-------------0-------|-------3-1---------------o||------*|
|-----2---2---------0---0-----|-----0-----0-------0------||------*|
|---2-------2-----0-------0---|---2---------2---4---4----||------*|
|-0-----------0-2-----------2-|-3-------------5-------5-o||------*|
|-----------------------------|--------------------------||-0----*|



Duration Legend
---------------
W - whole; H - half; Q - quarter; E - 8th; S - 16th; T - 32nd; X - 64th; a - acciaccatura
+ - note tied to previous; . - note dotted; .. - note double dotted
Uncapitalized letters represent notes that are staccato (1/2 duration)
Irregular groupings are notated above the duration line
Duration letters will always appear directly above the note/fret number it represents the
duration for.  Duration letters with no fret number below them represent rests.  Multi-
bar rests are notated in the form Wxn, where n is the number of bars to rest for.  Low
melody durations appear below the staff

Tablature Legend
----------------
 h   - hammer-on
 p   - pull-off
 b   - bend
 pb  - pre-bend
 r   - bend release (if no number after the r, then release immediately)
 /\  - slide into or out of (from/to "nowhere")
 s   - legato slide
 S   - shift slide
 - natural harmonic
[n]  - artificial harmonic
n(n) - tapped harmonic
 ~   - vibrato
 tr  - trill
 T   - tap
 TP  - trem. picking
 PM  - palm muting
\n/  - tremolo bar dip; n = amount to dip
 \n  - tremolo bar down
 n/  - tremolo bar up
/n\  - tremolo bar inverted dip
 =   - hold bend; also acts as connecting device for hammers/pulls
 <> - volume swell (louder/softer)
 x   - on rhythm slash represents muted slash
 o   - on rhythm slash represents single note slash

Misc Legend
-----------
 |  - bar
||  - double bar
||o - repeat start
o|| - repeat end
*|  - double bar (ending)
 :  - bar (freetime)
 $  - Segno
 &  - Coda
Tempo markers -  = BPM(8/16=s8/s16), where s8 = swing 8ths, s16 = swing 16ths

Tap to rate this tab
# A B C D E F G H I J K L M N O P Q R S T U V W X Y Z