Song name
# A B C D E F G H I J K L M N O P Q R S T U V W X Y Z

Den Svenska Bjornstammen - Vart Jag Mig I Varlden Vander tab

This is just the short intro without any pauses or rhytm indicated.

As I originally tabbed it:
E|-----------------------------------------------------------------------------------|
B|-----------------------------------------------------------------------------------|
G|--6--9--9--7--6--------6-----------6-----------------------------------------------|
D|-----------------9--6-----9--7--9-----7--6--------6--7-----------6--------7--9-----|
A|-----------------------------------------------9--------9--8--9-----8--9--------9--|
E|--------------------------------------------9--------------------------------------|

As I remade it to fit the standard first position of the major scale you'll usually learn:
E|-----------------------------------------------------------------------------------|
B|-----5--5--------------------------------------------------------------------------|
G|--6--------7--6--4-----6--4-----4--6-----------------------------------------4-----|
D|--------------------6--------7--------7--6-----4--6--7--4--3--4--6--3--4--7-----4--|
A|--------------------------------------------4--------------------------------------|
E|-----------------------------------------------------------------------------------|
Tap to rate this tab
# A B C D E F G H I J K L M N O P Q R S T U V W X Y Z