Song name
# A B C D E F G H I J K L M N O P Q R S T U V W X Y Z

Denison Witmer - Little Flowers tab

-------------------------------------------------------------------------------
			     Little Flowers - Denison Witmer
-------------------------------------------------------------------------------
Tabbed by: S_Town
Email: Scootzter27@aol.com

Tuning: Standard  capo 3

I think I covered all the bases here. This is my first tab, but it's an easy song. Enjoy.

Intro and verses
e|---------------------------------------------------------------------------|
B|----1-------1-------0-----------0---0-----------0---0-----------0----------|
G|--------0-------0-------0---------------0---------------0------------------|
D|------2-------2-------0-------0-------0---0h2-0-------0-------0------------|
A|--0-------0---------------0h2-----------------------------0h2--------------|
E|------------------3---------------1---------------3------------------------|

chorus
e|---------------------------------------------------------------------------|
B|----1-------1-------0-------0-------1-------1------0-----------0-----------|
G|--------0-------0-------0-------0-------0------0-------0-------------------|
D|------2-------2-------0-------0-------2-------2------0-------0-------------|
A|--3-------3-------2-------2-------0-------0--------------0h2---------------|
E|-------------------------------------------------3-------------------------|

end of the chorus
e|-----------------------3-------------|
B|---------0-------0-------------------|
G|-------0-------0---0-----0-----------|
D|---0h2-----2h3-------3-----3--3--2---|
A|-------------------------------------|
E|-------------------------------------|


This is at the end of verses and the intro
e|-----------------------------------|
B|---------0-------------------------|
G|-----------------------------------|
D|-----------0-----------------------|
A|-------3-------3-------------------|
E|---1---------------1---1---1-------|

Bridge 
e|------------0-------------------------3-------------------------0---------|
B|----1-------------------------1---------1---------------1-----------------|
G|--------0-------0-----------------0-------0-----------------0-------0-----|
D|------2-------2---2h3-2-0-------0-----------2h3-2-0-------2-------2-------|
A|--3-------3---------------3-2-------2---------------3-0-------0-----------|
E|--------------------------------------------------------------------------|

e|--------------------------------------3-----------|
B|--------------1-------1-------0-------------------|
G|------------------0-------0-------0-------0-------|
D|--2h3-2-0-------0-------0-------0---0---0---------|
A|----------3-2-------------------------------------|
E|--------------------3-------3---------------------|


| h  hammer-on

===============================================================================
Tap to rate this tab
# A B C D E F G H I J K L M N O P Q R S T U V W X Y Z