Song name
# A B C D E F G H I J K L M N O P Q R S T U V W X Y Z

Denison Witmer - Stations tab

----------------------------------------------------------------------------
			     Stations - Denison Witmer
----------------------------------------------------------------------------
Tabbed by:Stefan Edginton
Email:off_the_edginton@hotmail.com          p = pulloff
email me if you have comments               ~ = let ring
Tuning:  EADGBe capo 5                      h = hammer-on
                                            / = slide up
INTRO                                       \ = slide down

      C       C     C/B   Am                     F                   C
e|----3--333----33----33---3--333-3--------------1--111-----11-------0------|
B|----1--111----11----11---1--111-1------------1-1--111-0h1-11-------1------|
G|----0--000----00----00---2--222-2-------0h2h4--2--222-----22-2-0---0------|
D|----2--222----22----00---2--222-2--0h2h3-------3--333-----33-----2-2-2h3--|
A|-3--3--333--3-33--2-22-0-0--000-0--------------3--333-----33-------3------|
E|-----------------------------------------------1--111-----11--------------|

    G           C         C     C/B  Am                      F
e|----3--333--|---3--333----33----33---3--333-3--------------1--111---1--111-|
B|----1--000--|---1--111----11----11---1--111-1------------1-1--111---1--111-|
G|----0--000--|---0--000----00----00---2--222-2-------0h2h4--2--222---2--222-|
D|-0--0--000--|---2--222----22----00---2--222-2--0h2h3-------3--333-3-3--333-|
A|----2--222--|-3-3--333--3-33--2-22-0-0--000-0--------------3--333---3--333-|
E|--3-3--333--|----------------------------------------------1--111---1--111-|
   C        G
e|---0--000---3--333--|
B|---1--111---1--000--|
G|---0--000---0--000--|
D|---2--222---0--000--|
A|-3-3--333---2--222--|
E|----------3-3--333--|


VERSE X5

   C        C    C/B   Am                 F               C        G
e|---3--333---33---33---3--333-333-333----1--111---1--111---0--000---3--333-|
B|---1--111---11---11---1--111-111-111----1--111---1--111---1--111---1--000-|
G|---0--000---00---00---2--222-222-222----2--222---2--222---0--000---0--000-|
D|---2--222---22---00---2--222-222-222--3-3--333-3-3--333---2--222---0--000-|
A|-3-3--333-3-33-2-22-0-0--000-000-000----3--333---3--333-3-3--333---2--222-|
E|----------------------------------------1--111---1--111----------3-3--333-|

C       C       C/B     Am
I'll be Waiting on your train
         F
When you come back
C                  G
Through the western states

C        C       C/B    Am
When I left you on the platform
          F
Life Gets so Hard
      C                  G
But I Know that you'll be fine

C       C   C/B   Am       F       C       G

C                   C       C/B   Am
Stations make me think of my own travels
         F         C               G
All the people and places I've been through

C            C         C/B        Am
When You Find out they're the same things
         F
As the people
     C               G
And places where you grew


CHORUS X2

   Am                 F                  C                 G  1st ending
e|---3--333---3--333----1--111---1--111----3--333---3--333|--3--333---3--333-|
B|---1--111---1--111----1--111---1--111----1--111---1--111|--0--000---0--000-|
G|---2--222---2--222----2--222---2--222----0--000---0--000|--0--000---0--000-|
D|---2--222---2--222----3--333-3-3--333----2--222---2--222|--0--000---0--000-|
A|-0-0--000-0-0--000----3--333---3--333--3-3--333-3-3--333|--2--222---2--222-|
E|--------------------1-1--111---1--111-------------------|3-3--333-3-3--333-|
   G 2nd ending
e|---3-333---3-333---3-3-333-3-3-333-|---------------------------------------|
B|---1-110---0-000-0h1-1-111-0-0-000-|---------------------------------------|
G|---0-000---0-000---0-0-000-0-0-000-|---------------------------------------|
D|---0-000---0-000---0-0-000-0-0-000-|---------------------------------------|
A|---2-222---2-222---2-2-2-2-2-2-222-|---------------------------------------|
E|-3-3-333-3-3-333---3-3-333-3-3-333-|---------------------------------------|

         Am
Can you promise me
          F
That you still love
       C
What you loved
         G
When you left

         Am
Will you promise me
        F
You still have
        C
What you had
        G
When you left


SOLO

  C            C  C/B Am         F  C       G          C           C
e|--------------------------------------------------------------------------|
B|--------------------------------------------------------------------------|
G|------------------------------------------------------------------45------|
D|-----5-7p5-5-----------------------------------------------5-7p5-5--------|
A|-5/7---------8-7\-5-7--5~--8-77---7-7h8p7-5-----3p0h3--5/7----------------|
E|--------------------------------8~----------3/5---------------------------|
    C/B     Am      F                 C           G
e|--------------------------------------------------------------------------|
B|-5----3---3\1-1~----------------------------------------------------------|
G|-5-\4-4---4\2-2~------5---------------------5~----------------------------|
D|------------------5/7---7-5-3-5-3~------5---------------------------------|
A|------------------------------------5/7---7-----5~------------------------|
E|--------------------------------------------------------------------------|

Play Verse underneath solo


VERSE X2
   C        C    C/B   Am                 F               C        G
e|---3--333---33---33---3--333-333-333----1--111---1--111---0--000---3--333-|
B|---1--111---11---11---1--111-111-111----1--111---1--111---1--111---1--000-|
G|---0--000---00---00---2--222-222-222----2--222---2--222---0--000---0--000-|
D|---2--222---22---00---2--222-222-222--3-3--333-3-3--333---2--222---0--000-|
A|-3-3--333-3-33-2-22-0-0--000-000-000----3--333---3--333-3-3--333---2--222-|
E|----------------------------------------1--111---1--111----------3-3--333-|


C        C    C/B   Am
All i want is to be honest
          F
Like the seasons
   C              G
As talk about that slows

C             C        C/B    Am
There's compassion that holds no words
     F
It holds no words
     C              G
You feel it as you go


CHORUS X2

   Am                 F                  C                 G  1st ending
e|---3--333---3--333----1--111---1--111----3--333---3--333|--3--333---3--333-|
B|---1--111---1--111----1--111---1--111----1--111---1--111|--0--000---0--000-|
G|---2--222---2--222----2--222---2--222----0--000---0--000|--0--000---0--000-|
D|---2--222---2--222----3--333-3-3--333----2--222---2--222|--0--000---0--000-|
A|-0-0--000-0-0--000----3--333---3--333--3-3--333-3-3--333|--2--222---2--222-|
E|--------------------1-1--111---1--111-------------------|3-3--333-3-3--333-|
   G 2nd ending                        End On
e|---3-333---3-333---3-3-333-3-3-333-|-----0~--------------||
B|---1-110---0-000-0h1-1-111-0-0-000-|----0~---------------||
G|---0-000---0-000---0-0-000-0-0-000-|---0~----------------||
D|---0-000---0-000---0-0-000-0-0-000-|--2~-----------------||
A|---2-222---2-222---2-2-2-2-2-2-222-|-3~------------------||
E|-3-3-333-3-3-333---3-3-333-3-3-333-|---------------------||

         Am
Can you promise me
          F
That you still love
       C
What you loved
         G
When you left

         Am
Will you promise me
        F
You still have
        C
What you had
        G
When you left


Intro
Verse X5
Chorus X2
Solo X1 + Verse X2
Verse X2
Chorus X2
Tap to rate this tab
# A B C D E F G H I J K L M N O P Q R S T U V W X Y Z