Song name
# A B C D E F G H I J K L M N O P Q R S T U V W X Y Z

Dennis Brown - Westbound Train tab

[G#m - 466444, G#7 - xx6753, G7 - xx5642, C#m - 446654]
[G#m - xxx444, G#7 - xxx434, G7 - xxx323, C#m - xxx654]

[Intro]

   G#m                 G#7     G7

E-|---4-7-9-10-4-----|---4---4-3-3---3-|
B-|--------------5-4-|-3-3---3-2-2---2-|
G-|------------------|---4---4-3-3---3-|
D-|------------------|-----------------|
A-|------------------|---------1-------|
E-|------------------|-0---------------|
    ^   ^   ^    ^     ^   ^   ^   ^

    G#m                G#7     G7        G#m   

E-|-4-------------47-|-4-4---4-3-3---3-|-4-...
B-|-4-3/4-00-1/2-0---|-3-3---3-2-2---2-|-4-...
G-|-4----------------|-4-4---4-3-3---3-|-4-...
D-|-6----------------|-----------------|-6-...
A-|-6----------------|---------1-------|-6-...
E-|-4----------------|-0---------------|-4-...
    ^     ^    ^  ^    ^   ^   ^   ^

[Verse 1]
G#m                   G#m
Last night hour dread oooh
G#m                  G#m
I just went for a stroll
         G#m
But when i returned
   G#m
i saw this note
C#m        G#m
underneath my door (stating)

[Chorus]
        G#m
You'll never ever see me again
       G#m
So now our love must end
        G#m
You'll never ever see me again
G#m
My friend  (cause) 

        G#m
I'll be taking this train
         G#m
I'll be taking westbound train
         C#m
I'll be going to place
                G#m
Where there is happiness

[Bridge]
You'll never ever see me again
So now our love must end
You'll never ever see me again
My friend  (cause) 

You'll never ever see me...

(Whooa... cherry baby)
(I've gotta find you baby...)

(cause)

[Verse 2]

I'll never live in a world like that
You want to make me feel sad
And now i'm in very very steep position

So that's why this train
Won't miss me
Cause i've got to find my cherry baby

(So)

[Chorus]

(I've gotta find you cherry baby)
(Whoaa.. cherry baby)

[Verse 2]
Tap to rate this tab
# A B C D E F G H I J K L M N O P Q R S T U V W X Y Z