Song name
# A B C D E F G H I J K L M N O P Q R S T U V W X Y Z

Dennis Leary - Love Barge tab

Hey this is my first tab everyone so it probably will be kinda sketchy but this song 
too difficult.

It's Love Barge by Denis Leary, which appears as a video on the Complete Denis Leary 
DVD.

Also, my lyrics are very sketchy. I have a bad audio quality of the song so go easy on 
Email me suggestions at thethefan100@yahoo.com

Start.

"Go with yourself."

...

     G                       Em
e----3-----------------------0------------------|
B----3-----------------------0------------------|
G----0-----------------------0------------------|
D----0-----------------------2------------------|
A----2-----------------------2------------------|
E----3-----------------------0------------------|

     G                       Em
e----3------5/3--0-0-0-------0------------------|
B----3-----------3-2-0-------0------------------|
G----0-----------------2-----0------------------|
D----0-----------------------2------------------|
A----2-----------------------2------------------|
E----3-----------------------0------------------|

     "Loooooooooooooooove, Exccciting and new.
     G                       Em
e----3-----------------------0------------------|
B----3-----------------------0------------------|
G----0-----------------------0------------------|
D----0-----------------------2------------------|
A----2-----------------------2------------------|
E----3-----------------------0------------------|

     "Come aboard, we're expecting you.
    Dm                    G
e---1---------------------3---------------------|
B---3---------------------3---------------------|
G---2---------------------0---------------------|
D---0---------------------0---------------------|
A---0---------------------2---------------------|
E---0---------------------3---------------------|

     "We're exxxpecting you.
              Em
e-------------0--------------------------------|
B-------------0--------------------------------|
G-------------0--------------------------------|
D-------------2--------------------------------|
A-------------2--------------------------------|
E-------------0--------------------------------|

  "Love. Love. Love. Love. Life's sweetest reward.
  G                            Em
e-3----------------------------0----------------|
B-3----------------------------0----------------|
G-0----------------------------0----------------|
D-0----------------------------2----------------|
A-2----------------------------2----------------|
E-3----------------------------0----------------|

   "Let it flow, it floats back to you
  Dm                 G
e-1------------------3--------------------------|
B-3------------------3--------------------------|
G-2------------------0--------------------------|
D-0------------------0--------------------------|
A-0------------------2--------------------------|
E-0------------------3--------------------------|

        "It floats back to you...
                Em
e---------------0------------------------------|
B---------------0------------------------------|
G---------------0------------------------------|
D---------------2------------------------------|
A---------------2------------------------------|
E---------------0------------------------------|

    "Love. Love, love. Love. Love, love.
     G                 G
e----3-----------------3-----------------------|
B----3-----------------3-----------------------|
G----0-----------------0-----------------------|
D----0-----------------0-----------------------|
A----2-----------------2-----------------------|
E----3-----------------3-----------------------|

     "Love. Love, love. Love. Love, love.
      Em                Em
e-----0-----------------0-----------------------|
B-----0-----------------0-----------------------|
G-----0-----------------0-----------------------|
D-----2-----------------2-----------------------|
A-----2-----------------2-----------------------|
E-----0-----------------0-----------------------|

      "Loooooooooooooooooooooooooooooooooooove.
       G                G           Em       Em
e------3----------------3-----------0--------0------|
B------3----------------3-----------0--------0------|
G------0----------------------------0---------------|
D------0----------------------------2---------------|
A------2----------------------------2---------------|
E------3----------------------------0---------------|

  "Gavin Spouse here and the chick who did all that blow...Where are
  Dm                         Dm
e-1--------------------------1-----------------|
B-3--------------------------3-----------------|
G-2--------------------------2-----------------|
D-0--------------------------------------------|
A-0--------------------------------------------|
E-0--------------------------------------------|

 "you! Where are you! Where are you! Where are you!
  G              Em             G              Em
e-3--3--3--3-----0--0--0--0-----3--3--3--3-----0--0--0--0-|
B-3--3--3--3-----0--0--0--0-----3--3--3--3-----0--0--0--0-|
G-0--0--0--0-----0--0--0--0-----0--0--0--0-----0--0--0--0-|
D-0--0--0--0-----2--2--2--2-----0--0--0--0-----2--2--2--2-|
A-2--2--2--2-----2--2--2--2-----2--2--2--2-----2--2--2--2-|
E-3--3--3--3-----0--0--0--0-----3--3--3--3-----0--0--0--0-|

e---------------------------------------------|
B---------------------------------------------|
G---------------------------------------------|
D---------------------------------------------|
A---------------------------------------------|
E---2---0---0-2-5-6--0--0-8-7--0--0-8-7-------|

e---------------------------------------------|
B---------------------------------------------|
G---------------------------------------------|
D---------------------------------------------|
A----------9-9-9-9-9---------9-9-9-9-9--------|
E---5----5-------------5---5------------------|

                          "Drum Solo!............Fine!

e----------------------------------------------|
B----------------------------------------------|
G----------------------------------------------|
D----------------------------------------------|
A----------9-9-9-9-9---------9-9-9-9-9------2--|
E---2----2------------2----2----------------2--|

  "Loooooooooooooooooooooooooooooooooooooooove
   G                        Em
e--3------------------------0-------------------|
B--3------------------------0-------------------|
G--0------------------------0-------------------|
D--0------------------------2-------------------|
A--2------------------------2-------------------|
E--3------------------------0-------------------|

   "We got the bow and the stern...
    G                      G
e---3----------------------3-------------------|
B---3----------------------3-------------------|
G---0------------------------------------------|
D---0------------------------------------------|
A---2------------------------------------------|
E---3------------------------------------------|

   "We got the four and the amp and those two connect
               Em                   Em
e--------------0--------------------0---------------|
B--------------0--------------------0---------------|
G--------------0--------------------0---------------|
D--------------2------------------------------------|
A--------------2------------------------------------|
E--------------0------------------------------------|

    "We got the cruise jets, too, this ain't the cutie two,
                Dm                              Dm
e---------------1-------------------------------1---------|
B---------------3-------------------------------3---------|
G---------------2-----------------------------------------|
D---------------0-----------------------------------------|
A---------------0-----------------------------------------|
E---------------0-----------------------------------------|

 "Where are you! Where are you! Where are you! Where are you!
            G              Em             G              Em
e-----------3--3--3--3-----0--0--0--0-----3--3--3--3-----0--0--0--0-|
B-----------3--3--3--3-----0--0--0--0-----3--3--3--3-----0--0--0--0-|
G-----------0--0--0--0-----0--0--0--0-----0--0--0--0-----0--0--0--0-|
D-----------0--0--0--0-----2--2--2--2-----0--0--0--0-----2--2--2--2-|
A-----------2--2--2--2-----2--2--2--2-----2--2--2--2-----2--2--2--2-|
E-----------3--3--3--3-----0--0--0--0-----3--3--3--3-----0--0--0--0-|

  "Looooooooooooooooooooooooooooooooooooooooooooooooooove
  G              G              Em             Em
e-3--3--3--3-----3--3--3--3-----0--0--0--0-----0--0--0--0-----|
B-3--3--3--3-----3--3--3--3-----0--0--0--0-----0--0--0--0-----|
G-0--0--0--0-----0--0--0--0-----0--0--0--0-----0--0--0--0-----|
D-0--0--0--0-----0--0--0--0-----2--2--2--2-----2--2--2--2-----|
A-2--2--2--2-----2--2--2--2-----2--2--2--2-----2--2--2--2-----|
E-3--3--3--3-----3--3--3--3-----0--0--0--0-----0--0--0--0-----|

  "Think of the boat as a metaphor...
  G
e-3--------------------------------------------|
B-3--------------------------------------------|
G-0--------------------------------------------|
D-0--------------------------------------------|
A-2--------------------------------------------|
E-3--------------------------------------------|

      "Then again, maybe it is just a boat...
  Em
e-0--------------------------------------------|
B-0--------------------------------------------|
G-0--------------------------------------------|
D-2--------------------------------------------|
A-2--------------------------------------------|
E-0--------------------------------------------|

  "Looooooooooooooooooooooooooooooooooooooooooooooooooove
  G              G              Em             Em
e-3--3--3--3-----3--3--3--3-----0--0--0--0-----0--0--0--0-----|
B-3--3--3--3-----3--3--3--3-----0--0--0--0-----0--0--0--0-----|
G-0--0--0--0-----0--0--0--0-----0--0--0--0-----0--0--0--0-----|
D-0--0--0--0-----0--0--0--0-----2--2--2--2-----2--2--2--2-----|
A-2--2--2--2-----2--2--2--2-----2--2--2--2-----2--2--2--2-----|
E-3--3--3--3-----3--3--3--3-----0--0--0--0-----0--0--0--0-----|

  "Loooooooooooooooooooooooooooooooooooooooooooooooooooooooooo
  G              G              Em             Em
e-3--3--3--3-----3--3--3--3-----0--0--0--0-----0--0--0--0-----|
B-3--3--3--3-----3--3--3--3-----0--0--0--0-----0--0--0--0-----|
G-0--0--0--0-----0--0--0--0-----0--0--0--0-----0--0--0--0-----|
D-0--0--0--0-----0--0--0--0-----2--2--2--2-----2--2--2--2-----|
A-2--2--2--2-----2--2--2--2-----2--2--2--2-----2--2--2--2-----|
E-3--3--3--3-----3--3--3--3-----0--0--0--0-----0--0--0--0-----|

   "ooooooooooooooooooooooooooooooooooove."
  G
e-3--------------------------------------------|
B-3--------------------------------------------|
G-0--------------------------------------------|
D-0--------------------------------------------|
A-2--------------------------------------------|
E-3--------------------------------------------|

End.

Hope it helps. Thanks for looking!
Tap to rate this tab
# A B C D E F G H I J K L M N O P Q R S T U V W X Y Z