Song name
# A B C D E F G H I J K L M N O P Q R S T U V W X Y Z

Denver Harbor - Xenophobia tab

Ok I love this song.  It's one of my favorites, and nobody had a tab for it yet, so i
to tab it out myself.  I assure you, it is very accurate.  There are parts in the song
it is almost impossible to make out exactly what the lead guitarist is playing, but I 
my best, and it sounds just fine.


(Just Strum the chords accordingly, listen to the song for timing)


INTRODUCTION


guitar1
e----------------------------------|
B----------------------------------|
G-------2---------2--------2-------|
D-44p2h4-44-44p2h4-444-----2-----2-|
A--------------------------0-----2-|
E--------------------------------0-|
guitar2
e----------------------------------|
B----------------------------------|
G--------------------------2-------|
D--------4-----------------2-----2-|
A--------4-----------------0-----2-|
E--------2-----------------------0-|

guitar1
e----------------------------------|
B----------------------------------|
G-------2---------2--------2-------|
D-44p2h4-44-44p2h4-444-----2-----2-|
A--------------------------0-----2-|
E--------------------------------0-|
guitar2
e----------------------------------|
B----------------------------------|
G--------------------------2-------|
D--------4-----------------2-----2-|
A--------4-----------------0-----2-|
E--------2-----------------------0-|

guitar1
e----------------------------------|
B----------------------------------|
G-------2---------4b-2-----2-------|
D-44p2h4-44-44p2h4---------2-----2-|
A--------------------------0-----2-|
E--------------------------------0-|
guitar2
e----------------------------------|
B----------------------------------|
G--------------------------2-------|
D--------4-----------------2-----2-|
A--------4-----------------0-----2-|
E--------2-----------------------0-|

guitar1
e----------------------------------|
B----------------------------------|
G-------2---------2--------------4-|
D-44p2h4-44-44p2h4-444-----2-----4-|
A--------------------------2-----2-|
E--------------------------0-------|
guitar2
e----------------------------------|
B----------------------------------|
G--------------------------------4-|
D--------4-----------------2-----4-|
A--------4-----------------2-----2-|
E--------2-----------------0-------|

VERSE 1


both guitars (try to get a harmonic on E2, but it's not neccessary)
e------------------------------|
B------------------------------|
G------------------------2---4-|
D-4-xx-4-xx-4-xx-4-xx----2---4-|
A-4-xx-4-xx-4-xx-4-xx----0---2-|
E-2-xx-2-xx-2-xx-2-xx----------|


e------------------------------|
B------------------------------|
G------------------------2---4-|
D-4-xx-4-xx-4-xx-4-xx----2---4-|
A-4-xx-4-xx-4-xx-4-xx----0---2-|
E-2-xx-2-xx-2-xx-2-xx----------|

e------------------------------|
B------------------------------|
G------------------------2---4-|
D-4-xx-4-xx-4-xx-4-xx----2---4-|
A-4-xx-4-xx-4-xx-4-xx----0---2-|
E-2-xx-2-xx-2-xx-2-xx----------|

e------------------------------|
B------------------------------|
G----------------------------4-|
D-4-xx-4-xx-4-xx-4-xx----2---4-|
A-4-xx-4-xx-4-xx-4-xx----2---2-|
E-2-xx-2-xx-2-xx-2-xx----0-----|

PRECHORUS

guitar1 (Here's the part that is impossible to make out exactly, but just play this over
2 and it sounds fine)
e-----------------------|
B-----------------------|
G---2---4----2h4p2-4~2~-|
D---2---4-2h4-----------|
A---0---2---------------|
E-----------------------|
guitar2(the 244 chord for guitar 2 keeps going while guitar one plays the fancy soloey thing)
e----------------------|
B----------------------|
G---2---4--------------|
D---2---4--------------|
A---0---2--------------|
E----------------------|

both guitars
e--------------------|
B--------------------|
G---2---4-4-2-4-5555-|
D---2---4-4-2-4-5555-|
A---0---2-2-0-2-3333-|
E--------------------|

CHORUS 1


both guitars
e---------------|
B---------------|
G--------2----4-|
D---4----2----4-|
A---4----0----2-|
E---2-----------|

e---------------------|
B---------------------|
G--------2----4-------|
D---4----2----4-----4-|
A---4----0----2-----4-|
E---2---------------2-|
                    ^
(stop on the last chord,224)

Inbetween CHORUS1 & VERSE 2

Guitar 1
e---------------|
B---------------|
G---------------|
D-------2h42-4b-|
A----2h4--------|
E---------------|
guitar2
e---------------|
B---------------|
G---------------|
D---------------|
A---------------|
E---------------|


then do another VERSE AND PRECHORUS, same with both guitars.

CHORUS 2

both guitars
e---------------|
B---------------|
G--------2----4-|
D---4----2----4-|
A---4----0----2-|
E---2-----------|

e---------------|
B---------------|
G--------2----4-|
D---4----2----4-|
A---4----0----2-|
E---2-----------|

e---------------|
B---------------|
G--------2----4-|
D---4----2----4-|
A---4----0----2-|
E---2-----------|

e------------------|
B------------------|
G--------2----4----|
D---4----2----4----|
A---4----0----2----|
E---2--------------|
              ^
(hit this chord once and let it ring)


BRIDGE

guitar1
e--------------------------------|
B---10----9---12---10------------|
G----x----x----x----x---------11-|
D----7----6----9----7---------11-|
A------------------------------9-|
E--------------------------------|
guitar2
e-------------------------------|
B-------------------------------|
G----7----7----9----9--------11-|
D----7----7----9----9--------11-|
A----5----5----7----7---------9-|
E-------------------------------|

guitar1
e--------------------------------------------------------------|
B---10----9---12---10------------------------------------------|
G----x----x----x----x--------11-----9-----14-----------4-------|
D----7----6----9----7--------11-----9-----14-----2-----4-----4-|
A-----------------------------9-----7-----12-----2-----2-----4-|
E------------------------------------------------0-----------2-|
guitar2
e--------------------------------------------------------------|
B--------------------------------------------------------------|
G----7----7----9----9--------11-----9-----14-----------4-------|
D----7----7----9----9--------11-----7-----14-----2-----4-----4-|
A----5----5----7----7---------9-----7-----12-----2-----2-----4-|
E------------------------------------------------0-----------2-|

(on last three chords for both guitars, hit them once and let them ring)


Both guitars

e---------------------------------------|
B---------------------------------------|
G-----------------------------------5-4-|
D-----4-xx-4-xx-4-xx-4-xx-4-xx-4-xx-5-4-|
A-----4-xx-4-xx-4-xx-4-xx-4-xx-4-xx-3-2-|
E-----2-xx-2-xx-2-xx-2-xx-2-xx-2-xx-----|


e---------------------------------------|
B---------------------------------------|
G-----------------------------------5-4-|
D-----4-xx-4-xx-4-xx-4-xx-4-xx-4-xx-5-4-|
A-----4-xx-4-xx-4-xx-4-xx-4-xx-4-xx-3-2-|
E-----2-xx-2-xx-2-xx-2-xx-2-xx-2-xx-----|


e---------------------------------------|
B---------------------------------------|
G-----------------------------------5-4-|
D-----4-xx-4-xx-4-xx-4-xx-4-xx-4-xx-5-4-|
A-----4-xx-4-xx-4-xx-4-xx-4-xx-4-xx-3-2-|
E-----2-xx-2-xx-2-xx-2-xx-2-xx-2-xx-----|


e-----------------------------------------|
B-----------------------------------------|
G-----------------------------------5-4-2-|
D-----4-xx-4-xx-4-xx-4-xx-4-xx-4-xx-5-4-2-|
A-----4-xx-4-xx-4-xx-4-xx-4-xx-4-xx-3-2-0-|
E-----2-xx-2-xx-2-xx-2-xx-2-xx-2-xx-------|
                                        ^
                              (let this chord ring)

PRECHORUS
(ok this part is really hard to make out so i just play his really fast and it sound cool)

guitar1
e----5h7p5-5h7p5-5h7p5-5h7p5-5h7p5-5h7p5-5h7p5-|
B----------------------------------------------|
G----------------------------------------------|
D----------------------------------------------|
A----------------------------------------------|
E----------------------------------------------|
guitar2
e----------------------------------------------|
B----------------------------------------------|
G-----------------------4----------------------|
D-----------------------4----------------------|
A-----------------------2----------------------|
E----------------------------------------------|
(just play that chord over the whole thing)


guitar1
e--------------------|
B--------------------|
G---2---4-4-2-4-5555-|
D---2---4-4-2-4-5555-|
A---0---2-2-0-2-3333-|
E--------------------|
guitar2
e--------------------|
B--------------------|
G---2---4-4-2-4-5555-|
D---2---4-4-2-4-5555-|
A---0---2-2-0-2-3333-|
E--------------------|

CHORUS 3

both guitars
e---------------|
B---------------|
G--------2----4-|
D---4----2----4-|
A---4----0----2-|
E---2-----------|

e---------------|
B---------------|
G--------2----4-|
D---4----2----4-|
A---4----0----2-|
E---2-----------|

e---------------|
B---------------|
G--------2----4-|
D---4----2----4-|
A---4----0----2-|
E---2-----------|

e------------------------------|
B------------------------------|
G--------2----4----2----4----2-|
D---4----2----4----2----4----2-|
A---4----0----2----0----2----0-|
E---2--------------------------|
       taa...ake  taa...ake

OUTRO


both guitars
e---------------------------------------------|
B---------------------------------------------|
G---------------------------------------------|
D---2-4--2-4--2-4--2-4--2-4--2-4--2-4--2-4--2-|
A---2-4--2-4--2-4--2-4--2-4--2-4--2-4--2-4--2-|
E---0-2--0-2--0-2--0-2--0-2--0-2--0-2--0-2--0-|
                                            ^
                                        (Let this ring)

Ok well there you go.  If you have any comments, email me at Infectedmonkey96@ao.com.
Tap to rate this tab
 
# A B C D E F G H I J K L M N O P Q R S T U V W X Y Z