Song name
# A B C D E F G H I J K L M N O P Q R S T U V W X Y Z

Depapepe - Start tab

i just find one part...
this just one part of a song at 1:07 

E|-----------4-7--7-7--7-9-11-12--12-12-12-12-12-11-12-11-|
B|--5-5--5-7----------------------------------------------|
G|--------------------------------------------------------|
D|--------------------------------------------------------|
A|--------------------------------------------------------|
E|--------------------------------------------------------|


E|-9-7-9-9-9-9-9-7-9---4-4-----------4-----4--------------|
B|-------------------5-----7-7--5-7----7-5---7-5----------|
G|--------------------------------------------------------|
D|--------------------------------------------------------|
A|--------------------------------------------------------|
E|--------------------------------------------------------|


im still working to find other parts
if you find another parts please let me know....

Tap to rate this tab
# A B C D E F G H I J K L M N O P Q R S T U V W X Y Z