Song name
# A B C D E F G H I J K L M N O P Q R S T U V W X Y Z

Depapepe - Spur tab

I tabbed this song, only did the melody part not the rythym part. I tabbed this out 
no one ever did or posted it anywhere...
msg me if any request or there might a slight problem to this tablature joebudden63@yahoo.com

Capo: 3
Tunning: Standard EADGBE
stlye: Echo effect/Delay

into:
e|----------------------|
B|----------------------|
G|---12-12r---12--12r---|
D|----------------------|
A|----------------------|
E|----------------------|

e|---10-----12-----------10-----12------------10-------------------|
B|-----------------------------------------------------------------|
G|-12---12-----12p----12-----12-----12p----12-----12p--------------|
D|-----------------------------------------------------------------|x4
A|-----------------------------------------------------------------|
E|-----------------------------------------------------------------|


e|---10-----12-----------10-----12---------------------------------|
B|-----------------------------------------------------------------|
G|-12---12-----12p----12-----12-----12p----12s/5-------------------|
D|-----------------------------------------------------------------|
A|-----------------------------------------------------------------|
E|-----------------------------------------------------------------|

e|---------------5-5b--------------5-5b----------------------------|
B|-----------7-7b--------------7-7b--------------------------------|
G|-------5-5--------------5-5--------------------------------------|
D|---5-5--------------5-5------------------------------------------|
A|-----------------------------------------------------------------|
E|-----------------------------------------------------------------|

e|-----------------------------------------------------------------|
B|---8-8--6-6b------------8-8--6-6b--------------------------------|
G|-------------9-9-----------------9-9-----------------------------|
D|------------------5-5b-----------------7-7b----------------------|
A|-----------------------------------------------------------------|
E|-----------------------------------------------------------------|

e|---------------5-5b--------------5-5b----------------------------|
B|-----------7-7b--------------7-7b--------------------------------|
G|-------5-5--------------5-5--------------------------------------|
D|---5-5--------------5-5------------------------------------------|
A|-----------------------------------------------------------------|
E|-----------------------------------------------------------------|

e|-----------------------------------------------------------------|
B|---8-8--6-6b------------8-8--6-6b--------------------------------|
G|-------------9-9-----------------9-9-----------------------------|
D|------------------5-5b-----------------7-7b----------------------|
A|-----------------------------------------------------------------|
E|-----------------------------------------------------------------|

    ---------p.m. it the first two times-----------------------------|
e|---------------5-7-8-7-5-------------------------------------------|
B|--------5-6-8-------------8-6-5------------------------------------|x4
G|---5-7---------------------------7-5-4-----------------------------|
D|-------------------------------------------------------------------|
A|-------------------------------------------------------------------|
E|-------------------------------------------------------------------|

e|---7-----------------5-7-----------------------------------------|
B|-------------5-6-8-----------------------------------------------|
G|------4-5-7------------------------------------------------------|
D|-----------------------------------------------------------------|
A|-----------------------------------------------------------------|
E|-----------------------------------------------------------------|

e|-----------------------------------------------------------------|
B|---------5s/6--5-5r----5-6-5-------------------------------------|
G|-----5-7---------------------7-5-7-7s/9-9r-----------------------|
D|---5-------------------------------------------------------------|
A|-----------------------------------------------------------------|
E|-----------------------------------------------------------------|

e|-----5-7s/10--88-77-55-------------------------------------------|
B|---9-------------------88-66-5-5h6-------------------------------|
G|-----------------------------------------------------------------|
D|-----------------------------------------------------------------|
A|-----------------------------------------------------------------|
E|-----------------------------------------------------------------|

e|----------------------------------------------------7-7s/8r------|
B|--5-6-5---------5-5s/6r---6s/8r--6-5-6-6s/8r--88-10--------------|
G|---------7-5-7---------------------------------------------------|
D|-----------------------------------------------------------------|
A|-----------------------------------------------------------------|
E|-----------------------------------------------------------------|

e|---8-10-1212-13-12-10-8-10r----888-7-8-7-5/7---------------------|
B|---------------------------------------------8r------------------|
G|-----------------------------------------------------------------|
D|-----------------------------------------------------------------|
A|-----------------------------------------------------------------|
E|-----------------------------------------------------------------|

e|---------------5-7-8-7-5-----------------------------------------|
B|--------5-6-8-------------8-6-5----------------------------------|x4
G|---5-7---------------------------7-5-4---------------------------|
D|-----------------------------------------------------------------|
A|-----------------------------------------------------------------|
E|-----------------------------------------------------------------|

e|---7-------------5-7-8-10-12-13r---------------------------------|
B|-----------5-6-8-------------------------------------------------|
G|-----4-5-7-------------------------------------------------------|
D|-----------------------------------------------------------------|
A|-----------------------------------------------------------------|
E|-----------------------------------------------------------------|

e|-----------------------------------------------------------------|
B|-------5-7s/8-77r---7-8-7-5--5-5s/7------------------------------|
G|-----7---------------------7-------------------------------------|
D|---7-------------------------------------------------------------|
A|-----------------------------------------------------------------|
E|-----------------------------------------------------------------|

e|------7--9s/12--1010--99--77--55---------------------------------|
B|--11-----------------------------88-7-7h8r-----------------------|
G|-----------------------------------------------------------------|
D|-----------------------------------------------------------------|
A|-----------------------------------------------------------------|
E|-----------------------------------------------------------------|

e|-----------------------------------------------------9-9s/10r-10r|
B|----7-8-7-5---5-7--7h8---8s/10-8-7-8-8s/10---1010-12-------------|
G|------------7----------------------------------------------------|
D|-----------------------------------------------------------------|
A|-----------------------------------------------------------------|
E|-----------------------------------------------------------------|

e|---10-12-1414-15-14-12-10-12r--101010-9-10-9--7s/9-5r------------|
B|-----------------------------------------------------------------|
G|-----------------------------------------------------------------|
D|-----------------------------------------------------------------|
A|-----------------------------------------------------------------|
E|-----------------------------------------------------------------|

e|-----------------------------------------------------------------|
B|-------5-7s/8-77r---7-8-7-5--5-5s/7------------------------------|
G|-----7---------------------7-------------------------------------|
D|---7-------------------------------------------------------------|
A|-----------------------------------------------------------------|
E|-----------------------------------------------------------------|

e|------7--9s/12--1010--99--77--55---------------------------------|
B|--11-----------------------------88-7-7h8r-----------------------|
G|-----------------------------------------------------------------|
D|-----------------------------------------------------------------|
A|-----------------------------------------------------------------|
E|-----------------------------------------------------------------|

e|-----------------------------------------------------9-9s/10r-10r|
B|----7-8-7-5---5-7--7h8---8s/10-8-7-8-8s/10---1010-12-------------|
G|------------7----------------------------------------------------|
D|-----------------------------------------------------------------|
A|-----------------------------------------------------------------|
E|-----------------------------------------------------------------|

e|---10-12-1414-15-14-12-10-12r--10-9------------------------------|
B|-----------------------------------------------------------------|
G|-----------------------------------------------------------------|
D|-----------------------------------------------------------------|
A|-----------------------------------------------------------------|
E|-----------------------------------------------------------------|

e|----------------7-9-10-9-7---------------------------------------|
B|--------7-8-10--------------10-8-7-------------------------------|
G|---7-9-----------------------------9-7-6-------------------------|x6
D|-----------------------------------------------------------------|
A|-----------------------------------------------------------------|
E|-----------------------------------------------------------------|

r->Ring
b->Bend
h->Hammer
s/->Slide

and there you go
Tap to rate this tab
# A B C D E F G H I J K L M N O P Q R S T U V W X Y Z