Song name
# A B C D E F G H I J K L M N O P Q R S T U V W X Y Z

Depapepe - Sky Sky Sky tab

Depapepe  : Sky! Sky! Sky! (2004 Album Version)
Tabbed by : Hariz05
Tuning    : Standard (EADGBE)

Note:
My tab is more to Yoshinari Takuoka's part,
but I did tabbed some Takuya Miura's part, but not so sure about it.
This song takes a little practice, especially if your pinky aren't strong enough.
My tab is 100% ear transcribed, so it may vary from other music sheets.
From my point of view it is very accurate.

Also, I DID NOT arrange any strumming patterns, 
the tabs you see are just to indicate which note to press.
So please listen to song here:
http://www.youtube.com/watch?v=nnNJyYaO4Zg

I will upload a video cover soon and update this tab on Takuya Miura's part.

[INTRO]

Takuya Miura              Yoshinari Takuoka 
(Guitar 1)                (Guitar 2)
e|----------^14-12----12-|-------------------|
B|-10/12-14--------14----|-------------------|
G|-----------------------|--------^11-9----9-|
D|-----------------------|-8/9-11-------11---|
A|-----------------------|-------------------|
E|-----------------------|-------------------|

(Guitar 1)
e|-12-12-11/12-12-12-x6--8888-10101010------|
B|-12-12-11/12-12-12-------------------0000-|
G|-----------------------5555--7-7-7-7-2222-|
D|-------------------------------------1111-|
A|-------------------------------------2222-|
E|------------------------------------------|

(Guitar 2)
e|----------------------0000-2222------|
B|-0----0----0----0-x3--1111-3333-0000-|
G|-1----3----4----6-----0000-2222-2222-|
D|-2----4----5----7-----2222-0000-1111-|
A|-2----4----5----7-----3333------2222-|
E|-0-----------------------------------|
   Emaj F#11 Em7  Add9  C    D    B7 
   (Strum these chords) 

 
[CHORUS]

(Guitar 1)
Strum: E C#m A F#m B7

(Guitar 2)
e|------------------14-12-11-1212-1212-12/14-12-11-1212-12121212-|
B|-9-10-11-12121212----------------------------------------------|
G|------------------11--9--8--9-9--9-9--9/11--9--8--9-9--9-9-9-9-|
D|-6--7--8--9-9-9-9----------------------------------------------|
A|---------------------------------------------------------------|
E|---------------------------------------------------------------|

e|-5-7-9-11-7-9-11-12-9-11-12-14-16-14-|
B|-------------------------------------|
G|-2-4-6--8-4-6--8--9-6--8--9-11-13-11-|
D|-------------------------------------|
A|-------------------------------------|
E|-------------------------------------|

2nd time:

(Guitar 1)
Strum: E C#m, A G#5 F#5 G#5 A5 B5.

(Guitar 2)
e|------------------14-12-11-1212-1212-12/14-12-11-1212-12121212-|
B|-9-10-11-12121212----------------------------------------------|
G|------------------11--9--8--9-9--9-9--9/11--9--8--9-9--9-9-9-9-|
D|-6--7--8--9-9-9-9----------------------------------------------|
A|---------------------------------------------------------------|
E|---------------------------------------------------------------|

e|-5555-7777-9999-11111111-12-14-|
B|-------------------------------|
G|-2222-4444-6666--8-8-8-8--9-11-|
D|-------------------------------|
A|-------------------------------|
E|-------------------------------|
 
[VERSE]

Guitar1
Strums: E C#m A F#m B7

(Guitar 2)
e|---------------------------------------|
B|-10/12---10/12-------------------------|
G|-------9-------99-8-9-9/11-11-99-8-9---|
D|-------------------------------------9-|
A|---------------------------------------|
E|---------------------------------------|

e|--------------------------------------------|
B|------9-9/10-10-99--------9/10-10-99--------|
G|-9-11--------------9/11-9------------9/11-9-|
D|--------------------------------------------|
A|--------------------------------------------|
E|--------------------------------------------|

e|----------------------------|
B|-------------8/9------------|
G|-9----9----9-----11-9-8-999-|
D|---11---11------------------|
A|----------------------------|
E|----------------------------|

2nd time:

Guitar1
Strums: E C#m A F#m B7

(Guitar 2)
e|----------------------------------------|
B|-10/12----10/12-------------------------|
G|-------99-------99-8-9-9/11-11-99-8-9---|
D|--------------------------------------9-|
A|----------------------------------------|
E|----------------------------------------|

e|--------------------------------------------|
B|------9-9/10-10-99--------9/10-10-99--------|
G|-9-11--------------9/11-9------------9/11-9-|
D|--------------------------------------------|
A|--------------------------------------------|
E|--------------------------------------------|

e|---------------------------|
B|-------------8/9-12--------|
G|-9----9----9--------11-9-8-|
D|---11---11-----------------|
A|---------------------------|
E|---------------------------|
 
[VERSE 2]

(Guitar 1) 
Strum: A Am E E, A Am C D E.

Guitar 2
e|-------------------------------------------------|
B|-------------------------------------------------|
G|------8-9-9/11-9----7-9-9/11-9-11/13-13-11/13-13-|
D|-9/11------------10---------------------13/14-14-|
A|-------------------------------------------------|
E|-------------------------------------------------|

e|--------------------------------10-10/12-10-12-12/14-12-14------|
B|---------------9-10-12-13-12/13----------------------------0000-|
G|------8-9-9/11---------------------------------------------1111-|
D|-9/11------------------------------------------------------2222-|
A|-----------------------------------------------------------2222-|
E|----------------------------------------------------------------|

Repeat [CHORUS] [VERSE]

Last part of the [VERSE] on the 1st time:

  Guitar 1         Guitar 2
E|-7h9p7----------|----------------|
B|-------9-10-7-9-|-9h10p9-7-9-----|
G|----------------|------------8-9-|
D|----------------|----------------|
A|----------------|----------------|
E|----------------|----------------|

Repeat [VERSE 2] [CHORUS]

[INTERLUDE]

(Guitar 1)
e|-7--2-------------|
B|-8--3-x2-0-000000-|
G|-9--4----1-111111-|
D|-9--4----2-222222-|
A|---------2-222222-|
E|------------------|
   Em Bm 
(Strum the chords)

e|-5-7-4---6-5-4---0-2---|
B|-5-7-4---5-4-3---1-3-0-|
G|-6-8-4---4-4-4---0-2-1-|
D|-7-9-6---6-5-4---2-0-2-|
A|-7-9-6---4-3-2---3---2-|
E|-5-7-4-----------------|
   A B G#m         C D E
(Strum the chords)

Repeat [CHORUS]
 
[CHORUS] extended:

(Guitar 1)
e|-5555-7777-9999-11111111-12-14-|
B|-------------------------------|
G|-2222-4444-6666--8-8-8-8--9-11-|
D|-------------------------------|
A|-------------------------------|
E|-------------------------------|

(Guitar 2)
e|--9--9--9--9--11-11-11-11-----9-11-|
B|-10-10-10-10--12-12-12-12-x2-10-12-|
G|--9--9--9--9--11-11-11-11-----9-11-|
D|-11-11-11-11--13-13-13-13----11-13-|
A|--9--9--9--9--11-11-11-11-----9-11-|
E|-----------------------------------|

2nd time:

(Guitar 2)
e|-5555-7777-9999-11111111-12-14-12-|
B|----------------------------------|
G|-2222-4444-6666--8-8-8-8--9-11--9-|
D|----------------------------------|
A|----------------------------------|
E|----------------------------------|

[OUTRO]

(Guitar 1)
e|----------^14-12----12-|
B|-10/12-14--------14----|
G|-----------------------|
D|-----------------------|
A|-----------------------|
E|-----------------------|

(Guitar 2)
e|-------------------|
B|-------------------|
G|--------^11-9----9-|
D|-8/9-11-------11---|
A|-------------------|
E|-------------------|

(Guitar 1)
e|-12-12-11/12-12-12-x3-------------------12121212-14141414-17-16-|
B|-12-12-11/12-12-12----------------------------------------------|
G|----------------------Some---------------9-9-9-9-11111111-14-13-|
D|---------------------------leading------------------------------|
A|-----------------------------------part-------------------------|
E|----------------------------------------------------------------|

(Guitar 2)
e|----------------------0000-2222-2---|
B|-0----0----0----0-x3--1111-3333-3-0-|
G|-1----3----4----6-----0000-2222-2-2-|
D|-2----4----5----7-----2222-0000-0-1-|
A|-2----4----5----7-----3333--------2-|
E|-0----------------------------------|
   Emaj F#11 Em7  Add9  C    D      E 
   (Strum these chords)

Tada! Have fun!
Tap to rate this tab
 
# A B C D E F G H I J K L M N O P Q R S T U V W X Y Z