Song name
# A B C D E F G H I J K L M N O P Q R S T U V W X Y Z

Depapepe - This Way tab

E|--------------------------------------|---------------------------------------|
B|--5--7--5-----5--5--5--7--5-----5--5--|----4--5--7--7~9--7--5--5--7--5--------|
G|-----------4-----------------4--------|-6-------------------------------4--4--|
D|--------------------------------------|---------------------------------------|
A|--------------------------------------|---------------------------------------|
E|--------------------------------------|---------------------------------------|

E|--------------------------------------|---------------------------------------|
B|--5--7--5-----5--5--5--7--5-----5--5--|----4--5--7--7~9--7--5--5--7--9--------|
G|-----------4-----------------4--------|-6-------------------------------------|
D|--------------------------------------|---------------------------------------|
A|--------------------------------------|---------------------------------------|
E|--------------------------------------|---------------------------------------|

E|--7---------------------|----------------4--5--7------------|
B|-----5--5--7--5---------|-------4--5--7---------------------|
G|-----------------4--4---|-4--6------------------------------|
D|------------------------|-----------------------------------|
A|------------------------|-----------------------------------|
E|------------------------|-----------------------------------|

E|--7---------------------|-----------------------------------|
B|-----5--5--7--5---------|-------4--5--4--5--5--2------------|
G|-----------------4--4---|-4--6------------------------------|
D|------------------------|-----------------------------------|
A|------------------------|-----------------------------------|
E|------------------------|-----------------------------------|

E|--4--5--7---------------------|----------------4--5--7------|
B|-----------5--5--7--5---------|-------4--5--7---------------|
G|-----------------------4--4---|-4--6------------------------|
D|------------------------------|-----------------------------|
A|------------------------------|-----------------------------|
E|------------------------------|-----------------------------|

E|--7---------------------|-----------------------------------|
B|-----5--5--7--5---------|----------------5--7--9--7--9--9--7|
G|-----------------4--4---|-4--6--8--9--8---------------------|
D|------------------------|-----------------------------------|
A|------------------------|-----------------------------------|
E|------------------------|-----------------------------------|

E|-----7--7--12--11--9--7--9--11--11~12--11-------------------|
B|--9----------------------------------------12---------------|
G|-----------------------------------------------11-----------|
D|------------------------------------------------------------|
A|------------------------------------------------------------|
E|------------------------------------------------------------|

E|------------------------------------------------------------|
B|------------------------------------------------------------|
G|-9--11--13--11--9--9--11--13--11--9--9--11--13--11--9-------|
D|------------------------------------------------------------|
A|------------------------------------------------------------|
E|------------------------------------------------------------|

E|-----7--7--12--11--9--7--9--11--11~12--11-------------------|
B|--9----------------------------------------12---------------|
G|-----------------------------------------------11-----------|
D|------------------------------------------------------------|
A|------------------------------------------------------------|
E|------------------------------------------------------------|

E|------------------------------------------------------------|
B|------------------------------------------------------------|
G|-9--11--13--11--9--9--11--13--11--9-------------------------|
D|------------------------------------------------------------|
A|------------------------------------------------------------|
E|------------------------------------------------------------|
Tap to rate this tab
# A B C D E F G H I J K L M N O P Q R S T U V W X Y Z