Song name
# A B C D E F G H I J K L M N O P Q R S T U V W X Y Z

Depapepe - Sky Sky Sky tab

Song : Depapepe - Sky! Sky! Sky! Intro
By : khariq_fa
Twitter : @khariq_fa
Facebook : Khariq Fahradz

Enjoy ! Ok :)


h = hammer 
/ = slide

Tempo : Fast
 
[Intro 1#]

Takuya Miura (Guitar 1)

E|---------12--15--14--12------12| 
B|--12/14------------------14----|  
G|-------------------------------|  
D|-------------------------------|    
A|-------------------------------|   
E|-------------------------------|

[Intro 2#]

Takuya Miura (Guitar 1)

E|--12-12--11/12--12-12--|    |--12-12--11/12-12--11-12|
B|--12-12--11/12--12-12--|    |--12-12--11/12-12--11-12|
G|--12-12--11/12--12-12--| 3x |--12-12--11/12-12--11-12| 1x
D|-----------------------|    |------------------------|
A|-----------------------|    |------------------------|
E|-----------------------|    |------------------------|


E|--12-12--11/12--12-12--|    |-------|------------|-----------|
B|--12-12--11/12--12-12--|    |--8-8--|--10-10-10--|-----------|
G|--12-12--11/12--12-12--| 2x |--5-5--|--7--7--7---|--1-1-1-1-1|
D|-----------------------|    |-------|------------|--2-2-2-2-2|
A|-----------------------|    |--7-7--|--9--9--9---|--2-2-2-2-2|
E|-----------------------|    |-------|------------|-----------|  

Yoshinari Tokuoka (Guitar 2)
     
E|-------|--------|-------|--------|    |------|--2-2-2-|------------|
B|-------|--------|-------|--------|    |--1-1-|--3-3-3-|------------|
G|--1-1--|--3-3-3-|--4-4--|--6-6-6-| 3x |------|--2-2-2-|--1-1-1-1-1-|
D|--2-2--|--4-4-4-|--5-5--|--6-6-6-|    |--2-2-|--------|--2-2-2-2-2-|
A|--2-2--|--4-4-4-|--5-5--|--7-7-7-|    |--3-3-|--------|--2-2-2-2-2-|
E|-------|--------|-------|--------|    |------|--------|------------|

The End

Please Comment ! OK :)
Tap to rate this tab
# A B C D E F G H I J K L M N O P Q R S T U V W X Y Z