Song name
# A B C D E F G H I J K L M N O P Q R S T U V W X Y Z

Department Of Eagles - Phantom Other tab

Artist: Department of Eagles
Song: Phantom Other
Album: In Ear Park
By: Clark (oddmenout4@yahoo.com)

The other tab I saw for this is good for the general chords and such, but youll see as
song moves that it requires an alternate tuning to get the same notes as the recording.
strumming isnt exact, but youll get the feel when youre into it.  Brilliant song, and 
ton of fun to play.

Tuning: C#-G#-c#-G-B-E (all tab relative to this tuning)

Intro:
|---------4-4-2---2------------4-4-2-2-2------------|---------------|
|---------2-2-2---5------------2-2-2-2-5----5----8--|------9-9------|
|---------2-2-2---2-(x3)-------2-2-2-2-2----3----6--|------6-6-(x4)-|
|--0------0-0-0---0--------0---0-0-0-0-0----3----6--|------0-0------|
|-----------------------------------------4-4--7-7--|---------------|
|----3-3--3-----3-3----------3----------------------|--8-8----------|

Verse 1:
|---------------------------------------------------------------------|
|------9-9-----9-9-----7-7----7-7-----7-7-----7-7----5-5----5-5-5-5---|
|------6-6-----6-6-----6-6----6-6-----6-6-----6-6----2-2----2-2-2-2---|
|----0-0-0---0-0-0---0-0-0--0-0-0---0-0-0---0-0-0--0-0-0----0-0-0-0---|
|---------------------------------------------------------------------|
|--8-------8-------8-------8----8-7-------7-----7-5-------5---------7-|
            Alright            Well do this your way

|---------------------------------------------------------------------|
|------9-9-----9-9-----7-7----7-7-----7-7-----7-7----5-5----5-5-5-5---|
|------6-6-----6-6-----6-6----6-6-----6-6-----6-6----2-2----2-2-2-2---|
|----0-0-0---0-0-0---0-0-0--0-0-0---0-0-0---0-0-0--0-0-0----0-0-0-0---|
|---------------------------------------------------------------------|
|--8-------8-------8-------8----8-7-------7-----7-5-------5---------7-|
            Alright           Well make it anyway

|----------------------------------------------------------------------|
|------9-9-----9-9-----7-7----7-7-----7-7-----7-7----5-5----5-5-5-5----|
|------6-6-----6-6-----6-6----6-6-----6-6-----6-6----3-3----3-3-3-3----|
|----0-0-0---0-0-0---0-0-0--0-0-0---0-0-0---0-0-0--0-0-0----0-0-0-0----|
|----------------------------------------------------------------------|
|--8-------8-------8-------8----8-7-------7-----7-5-------5----------9-|
           Now would be a good time to send us all away, man

Chorus:
|-----1-1----11-----4-4---4444-------------4-4-2---2-------|
|-----0-0----00-----2-2---2222-------------2-2-2---5-------|
|-----1-1----11-----2-2---2222-(x2)--------2-2-2---2-(x2)--|
|-----0-0----00-----0-0---0000------0------0-0-0---0-------|
|----------------------------------------------------------|
|--0-------0---0-0------0-------------3-3--3-----3-3-------|
     What would it take?
     What would it take, to make you learn?

|-----1-1----11-----4-4---4444-------------4-4-2---2--|
|-----0-0----00-----2-2---2222-------------2-2-2---5--|
|-----1-1----11-----2-2---2222-(x2)--------2-2-2---2--|
|-----0-0----00-----0-0---0000------0------0-0-0---0--|
|-----------------------------------------------------|
|--0-------0---0-0------0-------------3-3--3-----3-3--|
     What would it take?
     What would it take, to make you listen?

|------4-4-2-2-2------------|
|------2-2-2-2-5----5----8--|
|------2-2-2-2-2----3----6--|
|--0---0-0-0-0-0----3----6--|
|-----------------4-4--7-7--|
|----3----------------------|
       Ah, ah, ah

Verse 2: (Same as Verse 1, with last line repeated)
Oh, man.  Youre not the only one
Oh, boy.  With that phantom other gone(?)
Now would be the right time to send us all away
And it would a good time, if youd just go away there

Chorus 2:
|-----1-1----11-----4-4---4444-------------4-4-2---2-------|
|-----0-0----00-----2-2---2222-------------2-2-2---5-------|
|-----1-1----11-----2-2---2222-(x2)--------2-2-2---2-(x2)--|
|-----0-0----00-----0-0---0000------0------0-0-0---0-------|
|----------------------------------------------------------|
|--0-------0---0-0------0-------------3-3--3-----3-3-------|
     What would it take?
     What would it take to make you leave?

|-----1-1----11-----4-4---4444-------------4-4-2---2-------4-4-2---2--|
|-----0-0----00-----2-2---2222-------------2-2-2---5-------2-2-2---5--|
|-----1-1----11-----2-2---2222-(x2)--------2-2-2---2-------2-2-2---2--|
|-----0-0----00-----0-0---0000------0------0-0-0---0-------0-0-0---0--|
|---------------------------------------------------------------------|
|--0-------0---0-0------0-------------3-3--3-----3-3--5-5--5----------|
     What would it take?
     What would it take, to make you listen?

Bridge: (intense strumming)
|------1-1----------------------------|    |----------------------|
|------0-0-----------------5-5--------|    |----------------------|
|------1-1--(x4)-----------3-3--(x4)--| x2 |----------------------|
|------0-0-----------------0-0--------|    |----------------------|
|-------------------------------------|    |----------------------|
|--0-0-----------------5-5------------|    |--/12-12-12-12-12\-0--|
      My God in heaven, what were we thinking?
      My God in heaven, what were we thinking of?

|----------------------------------------|
|--5--5--5--------------5--5--5----------|
|--3--3--3--------------3--3--3----------| x2
|--0--0--0-------0------0--0--0-------0--|
|----------------5--------------------5--|
|--5--5--5---5-5--------6--6--6---6-6----|
  Look out, look out now. We gotta get out now

|--------------------------------------|
|-----9-9---9-9-------9-9---9-9-9-9----|
|-----6-6---6-6-------6-6---6-6-6-6----| x2
|-----0-0---0-0-------0-0---0-0-0-0----|
|--------------------------------------|
|--8------8-----8-9-------9---------9--|
 Wake up, wake up now. We gotta get out now

|---------4-4-2---2------------4-4-2-2-2------------1--|
|---------2-2-2---5------------2-2-2-2-5----5----8--0--|
|---------2-2-2---2-(x3)-------2-2-2-2-2----3----6--1--|
|--0------0-0-0---0--------0---0-0-0-0-0----3----6--0--|
|-----------------------------------------4-4--7-7-----|
|----3-3--3-----3-3----------3-------------------------|
 Ah, ah, ah
Tap to rate this tab
# A B C D E F G H I J K L M N O P Q R S T U V W X Y Z