Song name
# A B C D E F G H I J K L M N O P Q R S T U V W X Y Z

Department Of Eagles - In Ear Park tab

Artist: Department of Eagles
Song: In Ear Park
Album: In Ear Park
Tabbed by: David
Email: oklateralus@yahoo.com

There's so much going on in this song that it's hard to tell how many guitars there are,
I have tabbed as much of it as I could for one guitar. The main bit takes a lot of
to get the fingerpicking fast enough; I'm not sure if that's exactly how it's played on 
or even if it's just one guitar playing, but it sounds very accurate to me.

Feel free to comment or send corrections to oklateralus@yahoo.com. Have fun!

Tuning: Drop D (DADGBe)

Intro

e|----7~----7h5--7--5---------7------7---9------12~--------------------------|
B|---------------------7~--------10--------------------7---------------------|
G|---------------------------------------------------------------------------|
D|---------------------------------------------------------------------------|
A|---------------------------------------------------------------------------|
D|---------------------------------------------------------------------------|

Main chord progression:

e|---5----7---9---12----7----------|
B|---7----0---7----0----0----------|
G|---7----7---9---11----7----------|
D|---6----6---7----9----6----------|
A|---0----0---0----0----0----------|
D|---0----0---0----0----0----------|

0:19 [played very fast, fingerpicked of course]

e|---5-------5-------5--------5---------5-------5------|
B|------7-------7-------7--------7---------7--------7--|
G|-----------------------------------------------------| x2
D|-----------------6----------------6------------------|
A|---------0---------------0-----------------0---------|
D|-0---------------------------------------------------|

e|----7--------7--------7--------7--------7--------7-----|
B|-------0--------0--------0--------0--------0--------0--|
G|-------------------------------------------------------| x2
D|-------------------6-----------------6-----------------|
A|----------0-----------------0-----------------0--------|
D|-0-----------------------------------------------------|

e|----9--------9--------9--------9--------9--------9--------9-------9------|
B|-------7--------7--------7--------7--------7--------7--------7------7----|
G|-------------------------------------------------------------------------|
D|-------------------7-----------------7-----------------------------------|
A|----------0-----------------0-----------------0-----------------0--------|
D|-0-----------------------------------------------------0-----------------|

e|----9--------12--------12--------12---------7---------7--------7---------|
B|-------7---------0---------0---------0---------0---------0--------0------|
G|-------------------------------------------------------------------------|
D|-0----------------------------9-----------------------------6------------|
A|--------------------0------------------------------0-----------------0---|
D|-----------0-----------------------------0-------------------------------|

e|-7--------7-------7-------7--------7---------7-------7--------7------7---|
B|----0--------0-------0-------0--------0---------0-------0--------0------0|
G|-------------------------------------------------------------------------|
D|-------6----------------------------------6----------------6-------------|
A|----------------0---------------0------------------0----------------0----|
D|------------------------0------------------------------------------------|

1:02

e|-------------------------------------------------------------------------|
B|-------------------------------------------------------------------------|
G|-------------------------------------------------------------------------|
D|--------0-----0-------------0-----0--3-------------4----4---------4---4--|
A|-----3-----3-----0-------3-----3----------------3-----3----0----3---3----|
D|--0-------------------0-----------------0---------------------0---------0|

2:28

e|-------------------------4---------|
B|------------------3------3---------|
G|------------------1------1---------|
D|------2--0--------3------3---------|
A|-------------1----1------1---------|
D|--/5-------------------------------|


| /  slide up
| \  slide down
| h  hammer-on
| p  pull-off
| ~  vibrato
| +  harmonic
| x  Mute note
Tap to rate this tab
# A B C D E F G H I J K L M N O P Q R S T U V W X Y Z