Song name
# A B C D E F G H I J K L M N O P Q R S T U V W X Y Z

Department Of Eagles - 1997 tab

This song has two guitar parts so when you see pairs GUITAR 1 and GUITAR 2, they are 
at the same time.
listen to the song for the rhythm of the strumming. D - down and U - up.
Thanks,

Jake Miller

Drop D Tuning

e|-9p0-------0-----9p0-------0-----9p0-------0-----9p0-------0------|
B|-------10------10------10------10------10------10------10------10-|
G|-----11------11------11------11------11------11------11------11---|
D|-11------11------11------11------11------11------11------11-------|
A|------------------------------------------------------------------|
D|------------------------------------------------------------------|

In 1997
e|-9p0-------0-----9p0-------0-----9p0-------0-----9p0-------0------|
B|-------10------10------10------10------10------10------10------10-|
G|-----11------11------11------11------11------11------11------11---|
D|-11------11------11------11------11------11------11------11-------|
A|------------------------------------------------------------------|
D|------------------------------------------------------------------|

Red was the only color I was
e|-12p0------0-----12p0------0-----14--------14----12--------12-----|
B|-------12------12------12------12------12------12------12------12-|
G|-----11------11------11------11------11------11------11------11---|
D|-12------12------12------12------12------12------12------12-------|
A|------------------------------------------------------------------|
D|------------------------------------------------------------------|

Seein
e|-9p0-------0-----9p0-------0-----9p0-------0-----9p0-------0------|
B|-------10------10------10------10------10------10------10------10-|
G|-----11------11------11------11------11------11------11------11---|
D|-11------11------11------11------11------11------11------11-------|
A|------------------------------------------------------------------|
D|------------------------------------------------------------------|

But Im not like that now
e|-9p0-------0-----9p0-------0-----9p0-------0-----9p0-------0------|
B|-------10------10------10------10------10------10------10------10-|
G|-----11------11------11------11------11------11------11------11---|
D|-11------11------11------11------11------11------11------11-------|
A|------------------------------------------------------------------|
D|------------------------------------------------------------------|

Give me your
e|-9p0-------0-----9p0-------0------|
B|-------10------10------10------10-|
G|-----11------11------11------11---|
D|-11------11------11------11-------|
A|----------------------------------|
D|----------------------------------|

Reasons ohhh
e|---0-------0-------0-------0-------0-------0-------0-------0------|
B|-------10------10------10------10------10------10------10------10-|
G|-----12------12------12------12------12------12------12------12---|
D|-11------11------11------11------11------11------11------11-------|
A|------------------------------------------------------------------|
D|------------------------------------------------------------------|

GUITAR 1
e|---0-------0-------0-------0-------0-------0-------0-------0------|
B|-------10------10------10------10------10------10------10------10-|
G|-----11------11------11------11------11------11------11------11---|
D|-12------12------12------12------12------12------12------12-------|
A|------------------------------------------------------------------|
D|------------------------------------------------------------------|

e|---0-------0-------0-------0-------0-------0-------0-------0------|
B|-------10------10------10------10------10------10------10------10-|
G|-----11------11------11------11------11------11------11------11---|
D|-12------12------12------12------12------12------12------12-------|
A|------------------------------------------------------------------|
D|------------------------------------------------------------------|

GUITAR 2 (lightly)
e|---------------------------------------0-------0-------0-------0--|
B|---0-------0-------0-------0-------0-------0-------0-------0------|
G|-------------------------------------2-------2-------2-------2----|
D|-----12------11------9-------7-----------4-------4-------4--------|
A|------------------------------------------------------------------|
D|-12------11------9-------7-------4--------------------------------|

e|---------------------------------------0-------0-------0-------0--|
B|---0-------0-------0-------0-------0-------0-------0-------0------|
G|-------------------------------------2-------2-------2-------2----|
D|-----12------11------9-------7-----------4-------4-------4--------|
A|------------------------------------------------------------------|
D|-12------11------9-------7-------4--------------------------------|

GUITAR 1
e|-9p0-------0-----9p0-------0-----9p0-------0-----9p0-------0------|
B|-------10------10------10------10------10------10------10------10-|
G|-----11------11------11------11------11------11------11------11---|
D|-11------11------11------11------11------11------11------11-------|
A|------------------------------------------------------------------|
D|------------------------------------------------------------------|

Back in hallway heaven
e|-9p0-------0-----9p0-------0-----9p0-------0-----9p0-------0------|
B|-------10------10------10------10------10------10------10------10-|
G|-----11------11------11------11------11------11------11------11---|
D|-11------11------11------11------11------11------11------11-------|
A|------------------------------------------------------------------|
D|------------------------------------------------------------------|

Red was the only color you were
e|-12p0------0-----12p0------0-----14--------14----12--------12-----|
B|-------12------12------12------12------12------12------12------12-|
G|-----11------11------11------11------11------11------11------11---|
D|-12------12------12------12------12------12------12------12-------|
A|------------------------------------------------------------------|
D|------------------------------------------------------------------|

Seein
e|-9p0-------0-----9p0-------0-----9p0-------0-----9p0-------0------|
B|-------10------10------10------10------10------10------10------10-|
G|-----11------11------11------11------11------11------11------11---|
D|-11------11------11------11------11------11------11------11-------|
A|------------------------------------------------------------------|
D|------------------------------------------------------------------|

But youre not like that now
e|-9p0-------0-----9p0-------0-----9p0-------0-----9p0-------0------|
B|-------10------10------10------10------10------10------10------10-|
G|-----11------11------11------11------11------11------11------11---|
D|-11------11------11------11------11------11------11------11-------|
A|------------------------------------------------------------------|
D|------------------------------------------------------------------|

Youre such an
e|-9p0-------0-----9p0-------0------|
B|-------10------10------10------10-|
G|-----11------11------11------11---|
D|-11------11------11------11-------|
A|----------------------------------|
D|----------------------------------|

Athlete ohhh
GUITAR 1
e|---0-------0-------0-------0-------0-------0-------0-------0------|
B|-------10------10------10------10------10------10------10------10-|
G|-----12------12------12------12------12------12------12------12---|
D|-11------11------11------11------11------11------11------11-------|
A|------------------------------------------------------------------|
D|------------------------------------------------------------------|

GUITAR 2
e|-9--|
B|-10-|	Strum this chord up and down. Start out with a soft strum
G|-12-|		and strum harder and harder as the measure goes on.
D|-11-|
A|-0--|
D|-0--|

GUITAR 1
e|---14------14------14------13------14------14-------14------13----|
B|-------10------10------10------9-------10------10-------10------9-|
G|-----11------11------11------10------11------11-------11------11--|
D|---------0---------------0---------------0----------------0-------|
A|------------------------------------------------------------------|
D|-0---------------0---------------0----------------0---------------|

e|---14------14------14------13------14------14-------14------13----|
B|-------10------10------10------9-------10------10-------10------9-|
G|-----11------11------11------10------11------11-------11------11--|
D|---------0---------------0---------------0----------------0-------|
A|------------------------------------------------------------------|
D|-0---------------0---------------0----------------0---------------|

GUITAR 2
e|-----14--14--14--14--14------14--14--14--13--13--13--13-----------|
B|-----13--13--13--13--13------13--13--13--12--12--12--12-----------|
G|-----14--14--14--14--14------14--14--14--13--13--13--13-----------|
D|-----0---0---0---0---0-------0---0---0---0---0---0---0------------|
A|-----12--12--12--12--12------12--12--12--0---0---0---0------------|
D|-0---0---0---0---0---0---0---0---0---0---12--12--12--12-----------|
       D   U   U   D   U       U   D   U   D   U   D   U

e|-----14--14--14--14--14------14--14--14--13--13--13--13-----------|
B|-----13--13--13--13--13------13--13--13--12--12--12--12-----------|
G|-----14--14--14--14--14------14--14--14--13--13--13--13-----------|
D|-----0---0---0---0---0-------0---0---0---0---0---0---0------------|
A|-----12--12--12--12--12------12--12--12--0---0---0---0------------|
D|-0---0---0---0---0---0---0---0---0---0---12--12--12--12-----------|
       D   U   U   D   U       U   D   U   D   U   D   U


GUITAR 1
e|---14------14------14------14-----|
B|-------10------10------10------10-|
G|-----11------11------11------11---|
D|---------0---------------0--------|
A|----------------------------------|
D|-0---------------0----------------|

GUITAR 2
e|-----14--14--14----10--10--10--7---7---7---5---5---5--------------|
B|-----13--13--13----10--10--10--7---7---7---7---7---7--------------|
G|-----14--14--14----11--11--11--7---7---7---7---7---7--------------|
D|-----0---0---0-----0---0---0---0---0---0---0---0---0--------------|
A|-----12--12--12---------------------------------------------------|
D|-0---0---0---0----------------------------------------------------|
       U   D   U     U   D   U   U   D   U   U   D   U

GUITAR 1
e|---12------12------12------12------12------12-------12------12----|
B|-------11------11------11------11------11------11-------11------11|
G|-----12------12------12------12------12------12-------12------12--|
D|---------0---------------0---------------0----------------0-------|
A|------------------------------------------------------------------|
D|-0---------------0---------------0----------------0---------------|

GUITAR 2
e|-x---x---x---x---x---x---x---x---|
B|-5---5---5---5---5---5---5---5---|
G|-3---3---3---3---3---3---3---3---|
D|-5---5---5---5---5---5---5---5---|	x2
A|-x---x---x---x---x---x---x---x---|
D|-5---5---5---5---5---5---5---5---|
   D   U   D   U   D   U   D   U

GUITAR 1
e|---14------14------14------13------14------14-------14------13----|
B|-------10------10------10------9-------10------10-------10------9-|
G|-----11------11------11------10------11------11-------11------11--|
D|---------0---------------0---------------0----------------0-------|
A|------------------------------------------------------------------|
D|-0---------------0---------------0----------------0---------------|

e|---14------14------14------13------14------14-------14------13----|
B|-------10------10------10------9-------10------10-------10------9-|
G|-----11------11------11------10------11------11-------11------11--|
D|---------0---------------0---------------0----------------0-------|
A|------------------------------------------------------------------|
D|-0---------------0---------------0----------------0---------------|

GUITAR 2
e|-----14--14--14--14--14------14--14--14--13--13--13--13-----------|
B|-----13--13--13--13--13------13--13--13--12--12--12--12-----------|
G|-----14--14--14--14--14------14--14--14--13--13--13--13-----------|
D|-----0---0---0---0---0-------0---0---0---0---0---0---0------------|
A|-----12--12--12--12--12------12--12--12--0---0---0---0------------|
D|-0---0---0---0---0---0---0---0---0---0---12--12--12--12-----------|
       D   U   U   D   U       U   D   U   D   U   D   U

e|-----14--14--14--14--14------14--14--14--13--13--13--13-----------|
B|-----13--13--13--13--13------13--13--13--12--12--12--12-----------|
G|-----14--14--14--14--14------14--14--14--13--13--13--13-----------|
D|-----0---0---0---0---0-------0---0---0---0---0---0---0------------|
A|-----12--12--12--12--12------12--12--12--0---0---0---0------------|
D|-0---0---0---0---0---0---0---0---0---0---12--12--12--12-----------|
       D   U   U   D   U       U   D   U   D   U   D   U


GUITAR 1
e|---14------14------14------14-----|
B|-------10------10------10------10-|
G|-----11------11------11------11---|
D|---------0---------------0--------|
A|----------------------------------|
D|-0---------------0----------------|

GUITAR 2
e|-----14--14--14----10--10--10--7---7---7---5---5---5--------------|
B|-----13--13--13----10--10--10--7---7---7---7---7---7--------------|
G|-----14--14--14----11--11--11--7---7---7---7---7---7--------------|
D|-----0---0---0-----0---0---0---0---0---0---0---0---0--------------|
A|-----12--12--12---------------------------------------------------|
D|-0---0---0---0----------------------------------------------------|
       U   D   U     U   D   U   U   D   U   U   D   U

GUITAR 1
e|---12------12------12------12------12------12-------12------12----|
B|-------0-------0-------0-------0-------0-------0--------0-------0-|
G|-----12------12------12------12------12------12-------12------12--|
D|---------0---------------0---------------0----------------0-------|
A|------------------------------------------------------------------|
D|-0---------------0---------------0----------------0---------------|

GUITAR 2
e|-x---x---x---x---x---x---x---x---|
B|-5---5---5---5---5---5---5---5---|
G|-3---3---3---3---3---3---3---3---|
D|-5---5---5---5---5---5---5---5---|	x2
A|-x---x---x---x---x---x---x---x---|
D|-5---5---5---5---5---5---5---5---|
   D   U   D   U   D   U   D   U

GUITARS 1 and 2
e|------------------------------------------------------------------|
B|---5-----5-----5---5-----5-----5---7-----7-----7---7-----7-----7--|
G|-----3-----3---------3-----3---------6-----6---------6-----6------|
D|---------------------------------7-----7-----7---7-----7-----7----|
A|-5-----5-----5---5-----5-----5------------------------------------|
D|------------------------------------------------------------------|

GUITAR 1
e|----|
B|-10-|
G|-11-|
D|-12-|	x7
A|-0--|
D|----|

GUITAR 2
e|----|
B|-9--|
G|-10-|
D|-11-|	x7
A|-0--|
D|----|

e|----|
B|-10-|
G|-11-|
D|-12-|
A|-0--|
D|----|
Tap to rate this tab
 
# A B C D E F G H I J K L M N O P Q R S T U V W X Y Z