Song name
# A B C D E F G H I J K L M N O P Q R S T U V W X Y Z

Department Of Eagles - What Is Your Deal tab

Drop D tuning. 

A really great song from the Daytrotter Sessions. This tab is 100% accurate, 
unless you think otherwise..

Chord Guide:
           E - 222100
           F - 333211
           G - 555433
Ab7 flat5 -9 - 004234 (Let's just call it an Ab7)
      D6add9 - 00220x
     Am sus4 - 007555

     F         E         D6add9
e|------------------------------------------|
B|-----1---1-----0---0----------------------|
G|-----2---2-----1---1-----2---2---2---2----|
D|---3---------2-----------2---2---2---2----|
A|-------3---------2---------0-------0------|
D|-----------------------0-------0----------| x2

          F     G
e|--------1-----3------|
B|--------1-----3------|
G|--------2-----4------|
D|--------3-----5------|
A|--------3-----5------|
D|--0-2-33--3s55-------| quickly into 

                            Come on man, get off it x2
       Ab7                    
e|-----4-----4----4----44--------|
B|-----3-----3----3----33--------|
G|-----2-----2----2----22--------|
D|-----4-----4----4----44--------|
A|-----0-----0----0----00--------|
D|--0------0----0----0-----------| Many times while the lyrics start



Before your dreams, came true. x2
You've nothing left, to ask. x2

        F        E        D6 add9    Am sus4
e|--------1---1----0---0-------------5--------|
B|--------1---1----0---0-----(0)-----5--------|
G|--------2---2----1---1------2--2s7-5--------|
D|--0-2-3--------2------------2--2s7-7--------|
A|----------3--------2------0--------0--------|
D|------------------------0-----0----0--------|x4

But your mother's advice. x2
Take your mother's advice.

         F     G     Am sus4
e|-------1-----3-----x--|
B|-------1-----3-----x--|
G|-------2-----4-----5--|
D|-------3-----5-----7--|
A|-------3-----5---0----|
D|--0-2-3--3s55--0------|


  ah ah ahh, ah  ah aahhh
e|-------------------------------------------|
B|-------------------------------------------|
G|-------------------------------------------|
D|-------------------------------------------|
A|--0-2-3--5--7--12--------------------------|
D|-------------------------------------------|

                           and come on man, get off it. x2
       Ab7                    
e|-----4----4----4----44--------|
B|-----3----3----3----33--------|
G|-----2----2----2----22--------|
D|-----4----4----4----44--------|
A|-----0----0----0----00--------|
D|--0-----0----0----0-----------|

During this part a second guitar with effects plays..

e|-----4-2--4-2--4-2--4-2-------|
B|------------------------------|
G|------------------------------|
D|------------------------------|
A|------------------------------|
D|------------------------------|

Repeat everything I've previously written, except add these lyrics:

All we ask is you. x2
But if you won't come down.
If you can't sit still.
Take your mother's advice x3
ah ah ahh, ahh ah ahhh.

Come on man. x2
Come on man, get off it.

That makes up the most of it, hope it helped. and thanks for supporting the best band out there.
Thanks!
-Jellikit
Tap to rate this tab
 
# A B C D E F G H I J K L M N O P Q R S T U V W X Y Z