Song name
# A B C D E F G H I J K L M N O P Q R S T U V W X Y Z

Department Of Eagles - Sailing By Night chords

Highlighted       Show chord diagrams
-----------------------------------------------------------------
Sailing By Night - Department of Eagles
-----------------------------------------------------------------
Tabbed by: mjohnson1915

Tuning: Standard

VERSE

e|-2---3-2--3-------2-------0-------|
B|-3---5--5-4-------3-------1-------|
G|-4---4----5-------4-------2-------|
D|-4---2----5-------4-------2-------|
A|-2---2----3-------2-------0-------|
E|-2---2----3-------2-------0-------|
   Bm  Em+9 G       Bm      Am

CHORUS

e|-2---5---------2---5---2---1---0---3-|
B|-3---5-5-------3---5---3---2---1---3-|
G|-4---6---6-----4---6---2---1---0---4-|
D|-4---7-----7-5-4---7---4---3---2---5-|
A|-2---7---------2---7---5---4---3---5-|
E|-2---5---------2---5---2---1---0---3-|
   Bm  A         Bm  A   D   C#  C   G
Tap to rate this tab
# A B C D E F G H I J K L M N O P Q R S T U V W X Y Z