Guitaretab - guitar tabs
Song name
# A B C D E F G H I J K L M N O P Q R S T U V W X Y Z

Depeche Mode - The Darkest Star tab

----------------------------------------------------------------------------
			The Darkest Star - Depeche Mode
----------------------------------------------------------------------------
Tabbed by: Bee-Ay
Email: Leviathan_ben@hotmail.com

Tuning: Standard


This very dark mooded song has some awesome guitarfills around.

Compressor, delay and a very small touch of reverb should match the sound.
[ Tab from: http://www.guitaretab.com/d/depeche-mode/114503.html ]
The first riff/fill jumps in at 3:18 in the 2nd verse:
e|-------------------------------------------|
B|-------6---6------------------------6---6--|
G|---6h8---8----------------------6h8---8----|
D|-8----------------------------8------------|
A|-------------------------------------------|
E|-------------------------------------------|

Outro riff/fills at 5:19
e|-17-------------------17--------------------|
B|----19-------------------19-----------------|
G|-------19-------------------19--------------|
D|----------19-17-16-------------19-17-15b16--|
A|--------------------------------------------|
E|--------------------------------------------|

And thats just it.
- Hell dark song.
Related for The Darkest Star tab
×
The Darkest Star