Song name
# A B C D E F G H I J K L M N O P Q R S T U V W X Y Z

Depeche Mode - Home tab

Hi this is my second tab 'Home by the Gods Depeche Mode(ive only been playing for about 
months and I tabbed this ages ago so sorry if its rubbish). i'm sure its right though:)

e|-------------------------------------------------------------|
B|---------------------------------9---------------------------|
G|-5-6-8-6-5-6-5------5-6-8-6-5-6-5----------------------------|
D|--------------6~---------------------------------------------|
A|-------------------------------------------------------------|
E|-------------------------------------------------------------|

e|-------------------------------------------------------------|
B|---------------------------------9---------------------------|
G|-5-6-8-6-5-6-5------5-6-8-6-5-6-5----------------------------|
D|--------------6~---------------------------------------------|
A|-------------------------------------------------------------|
E|-------------------------------------------------------------|

e|-----------------------------------------------------------|
B|-----------------------------------------------------------|
G|-5-6-8-6-5~~~~~--------------------------------------------|
D|-----------------------------------------------------------|
A|-----------------------------------------------------------|
E|-----------------------------------------------------------|
~ = vibrato, do a slow up and down motion to recreate sound.

hope you like it :)

by Wade.C
Tap to rate this tab
 
# A B C D E F G H I J K L M N O P Q R S T U V W X Y Z