Depeche Mode - Halo tab

                         Depeche Mode
                         ============
                             Halo  goldfrapp remix
                             ----
Chords:
Dm  (x57765)
AM* (x13321)
A   (x02220

intro:
         Dm                        Am#                   A
---5-------5------5-----5----------1-----1----------0----2------------|
---6-------6------6-----6----------2-----2----------2----2------------|
---7-------7------7-----7----------3-----3----------2----2------------|
---7-------7------7-----7----------3-----3----------2----2------------|
------5-------5------5----5-----------1-----1---------0----0----------|
----------------------------------------------------------------------|

Dm                                    Am#                   A
-----------------------------------------------------------0---------------|
--------6-------6------6-----6----------2-----2----------2-----------------|
------7-------7------7-----7----------3-----3----------2-------------------|
----7-------7------7-----7----------3-----3----------2---------------------|
--5-------5------5----5-----------1-----1----------0-----------------------|
---------------------------------------------------------------------------|


          Dm
You wear guilt

                       Am#
Like shackles on your feet

                   A
Like a halo in reverse

I can feel
The discomfort in your seat
And in your head it's worse

There's a pain
A famine in your heart
An aching to be free

Can't you see
All love's luxuries
Are here for you and me


And when our worlds they fall apart
When the walls come tumbling in
Though we may deserve it
It will be worth it

Bring your chains
Your lips of tragedy
And fall into my arms

And when our worlds they fall apart
When the walls come tumbling in
Though we may deserve it
It will be worth it

===========================================
 Tuned by me
 good luck+
 teimuraz13@yahoo.com
Tap to rate this tab
 
# A B C D E F G H I J K L M N O P Q R S T U V W X Y Z