Guitaretab - guitar tabs
Song name
# A B C D E F G H I J K L M N O P Q R S T U V W X Y Z

Depeche Mode - A Question Of Time tab

\ = slide down

Intro: play 2x

E |-------1-3-1-3-|
B |---3-----------|
G |-0-------------|
D |---------------|
A |---------------|
E |---------------|

Main Riff: play 2x

E |-------------------------------------------------|
B |-------------------------------1-----------1-----|
G |-0---0-3-0-0-0---0-3-0-0-0---0---2---0---0---2---|
D |---3-----------3-----------3-------1---3-------1-|
A |-------------------------------------------------|
E |-------------------------------------------------|

Main Riff - Live Guitar Version (e.g: Touring The Angel): 

E |----------------------------------------------------------|
B |-------------------------------------1--------------1-----|
G |-------0-3-0-0-------0-3-0-0-------0---2----------0---2---|
D |-5-\-3---------5-\-3---------5-\-3-------1--5-\-3-------1-|
A |----------------------------------------------------------|
E |----------------------------------------------------------|

Bass (bass guitar): 
[ Tab from: http://www.guitaretab.com/d/depeche-mode/27820.html ]
I've got to get to you first,                          
                                    Before they do.
E|---------------------------------------------------------------------------------|
B|---------------------------------------------------------------------------------|
G|---------------------------------------------------------------------------------|
D|---------------------------------------------------------------------------------|
A|-10-10-10-10-10-10-11-10-10-10-10-10-10-10-11-10-8-8-8-8-8-8-9-8-8-8-8-8-8-8-9-8-|
E|---------------------------------------------------------------------------------|
It's just a question of time,
                                    Before they lay their hands on you.
-----------------------------------------------------------------------------------
And make you just like the rest,
                       I've got to get to you first
E|-----------------------------------------------------------------------------|
B|-----------------------------------------------------------------------------|
G|-----------------------------------------------------------------------------|
D|-----------------------------------------------------------------------------|
A|-3-3-3-3-3-3-4-3-3-3-3-3-3-3-4-3-11-11-11-11-11-11-11-6-6-6-6-6-6-6-6-6------|
E|-----------------------------------------------------------------------------|

It's just a question of time


Related for A Question Of Time tab
A Question Of Time chords by Depeche Mode