Song name
# A B C D E F G H I J K L M N O P Q R S T U V W X Y Z

Depeche Mode - Enjoy The Silence tab

This is from watching Martin Gore play it on Tour of the Universe, sounds perfect :)

intro:

E-------------------------------|---------------------------------|
B-------------------------------|---------------------------------|
G-------------------------------|---------------------------------|
D-------8----10-------8---------|------8-----10---------8---------|
A---------------------------11--|-----------------------------11--|
E---9-----9--------9-----9------|---9-----9----------9-----9------|
    2  1  2  3     2  1  2  4       2  1  2  3       2  1  2  4

|----------------------------------|--------------------------------|
|----------------------------------|--------------------------------|
|-------------------------5--------|-----------------------5--------|
|---------7-----5---------------8--|-------7-----5------------------|
|--------------------2/6-----6-----|------------------2/6-----6-----|
|----4/8-----6---------------------|--4/8-----6------------------5--|
      2  1   2  1     2   1  2  4      2   1  2  1     2   1  2  1


keyboard and guitar outro:

E-------------------------------|------------------------------|
B-------------------------------|------------------------------|
G-------------------------------|------------------------------|
D-----8-----10-------11---------|------------------------------|
A---------------------------11--|-----11-----8-------11-----8--|
E--9-----9--------9------9------|--9------9-------9------9-----|
   2  1  2  3     2   4  2  4      2  4   2  1    2  4   2  1

I can't workout the solo for the extended bit from tour of the universe and the 3rd time 
the chorus is sung, but i do know that this chord is used in the solo, but it does look 
like Martin Gore is changing the chord slightly.

|--8---|
|--11--|
|--9---|
|--10--|
|--X---|
|--X---|
Tap to rate this tab
 
# A B C D E F G H I J K L M N O P Q R S T U V W X Y Z