Song name
# A B C D E F G H I J K L M N O P Q R S T U V W X Y Z

Depeche Mode - Angel Of Love tab

Depeche Mode - Angel of Love (Guitar tab by Dave Goody)
Play in Drop C 
Intro (without DRIVE)
D ----------------------------------------------------|
A ----------------------------------------------------|
F ----------------------------------------------------|  13x
C ----------------------------------------------------|
G --4-4-4-4-4-4-4-4-4-4-4-4-9-9-9-9-9-9-7-7-7-7-7-7---|  P.M
C --4-4-4-4-4-4-4-4-4-4-4-4-9-9-9-9-9-9-7-7-7-7-7-7---|  P.M
(without DRIVE)
D -----------------------------------------------------------|
A -----------------------------------------------------------|
F -----------------------------------------------------------|  2x
C --12-----11-----9-----7-----4-----4-----4-----4------------|
G --12-----11-----9-----7-----4-----4-----4-----4------------|
C --12-----11-----9-----7-----4-----4-----4-----4------------|
(WITH DRIVE)
D ----------------------------------------------------|
A ----------------------------------------------------|
F ----------------------------------------------------| 
C --4-4-4-4-4-4-4-4-4-4-4-4-9-9-9-9-9-9-7-7-7-7-7-7---| 13x
G --4-4-4-4-4-4-4-4-4-4-4-4-9-9-9-9-9-9-7-7-7-7-7-7---|  
C --4-4-4-4-4-4-4-4-4-4-4-4-9-9-9-9-9-9-7-7-7-7-7-7---|  
(without DRIVE)
D -----------------------------------------------------------|
A -----------------------------------------------------------|
F -----------------------------------------------------------|  4x
C --12-----11-----9-----7-----4-----4-----4-----4------------|
G --12-----11-----9-----7-----4-----4-----4-----4------------|
C --12-----11-----9-----7-----4-----4-----4-----4------------|

I hope that you like it. This TAB is from THIS video: 
http://www.youtube.com/watch?v=gZCxjASJ8O0 Enjoy it.. :))
Tap to rate this tab
# A B C D E F G H I J K L M N O P Q R S T U V W X Y Z