Song name
# A B C D E F G H I J K L M N O P Q R S T U V W X Y Z

Depeche Mode - Heaven tab

Intro/ first verse/ outro

|------------------------|------------------------|
|------------------------|------------------------|
|------------------------|------------------------|
|------------------------|------------------------|
|------------------------|--8-----6~--------------|
|-6-------4------4/6-----|-------------6/1--------|

chorus
 (First line of both choruses)
|------------------------|--------------------------|
|------------------------|--------------------------|
|------------------------|--------------------------|
|------------------------|--------------------------|
|-6--------6-----6-------|-----------6--8--9--4/6~--|
|-------------------6----|-6--8--9------------------|
      I Dissolve in trust

(all other lines of chorus)
|------------------------|--------------------------|
|------------------------|--------------------------|
|------------------------|--------------------------|
|------------------------|--------------------------|
|----------6-----6-------|-----------6--8--9--4/6~--|
|-------------------6----|-6--8--9------------------|

between chorus and verse

A|-----6-6-6--6--6-6-6--6-|-6-x-6-x-6-x-6-x-6-x-|

Second verse 

|-6----|-8----|-6----|-6----|-6----|
|-9----|-6----|-6----|-9----|-7----|
|-6----|-6----|-6----|-6----|-6----|
|-8----|-6----|-8----|-6----|-6----|
|-x----|-x----|-x----|-x----|-x----|
|-x----|-x----|-x----|-x----|-x----|
                          \   /
                           \ /
                            |
                            |
                            |
                     This can also be done

                   b|---1/9----7--|  (studio version)

/ = slide to (Example: 1/9, play 1 and slide to 9)
~ = vibrato (bend up and down quickly to elongate note)
Tap to rate this tab
 
# A B C D E F G H I J K L M N O P Q R S T U V W X Y Z