Song name
# A B C D E F G H I J K L M N O P Q R S T U V W X Y Z

Depeche Mode - Heaven chords

Highlighted       Show chord diagrams
Original tune: capo on the 1st fret.

G    - 320003
D/F# - 200232
[ch]Dm/F[/ch] - 100231

Intro:
Am G D/F# [ch]Dm/F[/ch] x2

Verse:
Am           G       D/F#
 Sometimes I slide away
[ch]Dm/F[/ch]
 Silently
Am         G       D/F#
 I slowly lose myself
[ch]Dm/F[/ch]
 Over and over

Am            G       D/F#
 Take comfort in my skin
[ch]Dm/F[/ch]
 Endlessly
Am         G       D/F#
 Surrender to my will
[ch]Dm/F[/ch]
 Forever and ever

Chorus:
Dm     C        Am             
  I dissolve in trust
e|-----------------|
B|-----------------|
G|-----------------|
D|------------0-2--|
A|----0-3---3------|
E|--3--------------|

Dm       C         Am
  I will sing with joy
e|-----------------|
B|-----------------|
G|-----------------|
D|------------0-2--|
A|----0-3---3------|
E|--3--------------|

Dm       C      Am
  I will end up dust
e|-----------------|
B|-----------------|
G|-----------------|
D|------------0-2--|
A|----0-3---3------|
E|--3--------------|

F               F7
  I'm in heaven

Am G D/F# [ch]Dm/F[/ch] x2

Verse:
 I stand in golden rays
 Radiantly
 I burn a fire of love
 Over and over

 Reflecting endless light
 Relentlessly
 I have embraced the flame
 Forever and ever

Chorus:
 I will scream The Word
 Jump into the void
 I will guide the hurt
 Up to heaven

Outro:
Am G D/F# [ch]Dm/F[/ch] x2

*You can also tap on the guitar's body for simulating bass
Tap to rate this tab
# A B C D E F G H I J K L M N O P Q R S T U V W X Y Z