Song name
# A B C D E F G H I J K L M N O P Q R S T U V W X Y Z

Depeche Mode - See You chords

Highlighted       Show chord diagrams
See You by Martin Gore
Depeche Mode - A Broken Frame

    Am   F   G  Em  C  C/B
e|---0---1---3---0--0---0------------------------------------------------|
B|---1---1---0---0--1---1------------------------------------------------|
G|---2---2---0---0--0---0------------------------------------------------|
D|---2---3---0---2--2---0------------------------------------------------|
A|---0---x---2---2--3---2------------------------------------------------|
E|---x---x---3---0--x---x------------------------------------------------|

The change from C to C/B is only played as the bass note on the A string.

Riff on Am
    Am? Am  Am? Am  
e|----------------------------------------------------------------------|
B|---3---1---0---3------------------------------------------------------|
G|---2---2---2---2------------------------------------------------------|
D|---2---2---2---2------------------------------------------------------|
A|----------------------------------------------------------------------|
E|---x---x---x---x------------------------------------------------------|


Riff on Am x3
Am
All I want to do is see you again
F                G      C C/B
Is that too much to ask for?
Am
I just want to see your sweet smile
F                 G   C
Smiled the way it was before

F
Well I'll try not to hold you
         Em
And I'll try not to kiss you
F               Am     G
And I won't even touch you

C             E     Am  F
All I want to do is see you
F         G              C
Don't you know that it's true?

I remember the days when we'd walk through the woods
And sit on a bench for a while
I treasure the way we used to laugh and play
And look in each others eyes

You can keep me at a distance if you don't trust my resistance
But I swear I won't touch you

All I want to do is see you
Don't you know that it's true?

F                           G
Well I know five years is a long time
Em             Am
And that times change
F                    G
But I think that you will find
Em
People are basically the same

Riff on Am x 3

If the water's still flowing, we can go for a swim
And do the things we used to do
And if I'm reluctant you can pull me in
And we can relive our youth

Oh but we'll stay friendly like sister and brother
Though I think I still love you

All I want to do is see you
Don't you know that it's true?

Riff on Am x 3
Tap to rate this tab
# A B C D E F G H I J K L M N O P Q R S T U V W X Y Z