Song name
# A B C D E F G H I J K L M N O P Q R S T U V W X Y Z

Depeche Mode - Enjoy The Silence tab

Author/Artist: Depeche Mode
Title: Enjoy The Silence
Album: Violator
Transcribed by: HAIMRocker
Tuning: Eb Ab Db Gb Bb Eb

Intro: C#m E x6

Riff A:

-----------------|-----------------|----------------|----------------|
-----------------|-----------------|----------------|----------------|
-------6-----8---|------6----------|------6-----8---|------6---------|
-----------------|-------------9---|----------------|------------9---|
----7-----7------|---7-----7-------|---7-----7------|---7-----7------|
-----------------|-----------------|----------------|----------------|
                                                                              

-----------------|-----------------|----------------|----------------|
-----------------|-----------------|----------------|----------------|
-----------------|------6----------|----------------|------6---------|
-------7-----6---|-------------9---|------7-----6---|----------------|
----7-----7------|---7-----7-------|---7-----7------|---7-----7x-7x--|
-----------------|-----------------|----------------|----------------|
                                      

                               
C#m
Words like violence
E/B
Break the silence
A
Come crashing in
Into my little world
C#m
Painful to me
E/B
Pierce right through me
A
Can't you understand
Oh my little girl

F#m
All I ever wanted
A
All I ever needed
   C#m     E
Is here in my arms
F#m            A
Words are very unnecessary
C#m              C
They can only do harm

Interlude: C#m E x4 with Riff A

C#m
Vows are spoken
E/B
To be broken
A
Feelings are intense
Words are trivial
C#m
Pleasures remain
E/B
So does the pain
A
Words are meaningless
And forgettable

F#m
All I ever wanted
A
All I ever needed
   C#m     E
Is here in my arms
F#m            A
Words are very unnecessary
C#m              C
They can only do harm

Guitar Solo: F#m A C#m E x2

Riff B: Repeat x2     

-------9-----11--|------12---------|----------------|----------------|
-----------------|-------------12--|------12----9---|------12----9---|
----9-----9------|---9-----9-------|---9-----9------|---9-----9------|
-----------------|-----------------|----------------|----------------|
-----------------|-----------------|----------------|----------------|
-----------------|-----------------|----------------|----------------|
               
Interlude: C#m E x4 with Riff A                                                           

F#m
All I ever wanted
A
All I ever needed
   C#m     E
Is here in my arms
F#m            A
Words are very unnecessary
C#m              C
They can only do harm
F#m
All I ever wanted
A
All I ever needed
   C#m     E
Is here in my arms
F#m            A
Words are very unnecessary
C#m              C
They can only do harm

Outro: F#m A C#m E x8

Riff C: Repeat x8, 8th time Fade Out

-----------------|-----------------|----------------|----------------|
-----------------|-----------------|----------------|----------------|
-------6-----8---|------9----------|----------------|----------------|
-----------------|-------------9---|------9-----6---|------9-----6---|
----7-----7------|---7-----7-------|---7-----7------|---7-----7------|
-----------------|-----------------|----------------|----------------|
Tap to rate this tab
 
# A B C D E F G H I J K L M N O P Q R S T U V W X Y Z