Song name
# A B C D E F G H I J K L M N O P Q R S T U V W X Y Z

Depeche Mode - Personal Jesus tab

Depeche Mode - Personal Jesus
Tabbed by: Josh Grant XD



Intro       (Harmonics)
e|------------------------|
b|------------------------|
G|------------------------|
D|--------------7---------|
A|------------7-----------|
E|------------------------|


Riff 1

e|-----------------------|
b|-----------------------|
G|-----------------------|     4x
D|--------4------------4-|
A|-----------------------|
E|-2--5-2----5-22-5-2----|

Your own ...... personal
e|-----------------------|
b|-----------------------|
G|-----------------------|
D|--------4------------4-|
A|-----------------------|
E|-2--5-2----5-22-5-2----|

 ..Jesus ....
e|-----------------------|
b|-----------------------|
G|-----------------------|
D|--------4------------4-|
A|-----------------------|
E|-2--5-2----5-22-5-2----|

Someone to hear your prayers
e|-----------------------|
b|-----------------------|
G|-----------------------|
D|--------4------------4-|
A|-----------------------|
E|-2--5-2----5-22-5-2----|

   Someone who cares
e|-----------------------------------------|
b|-----------------------------------------|
G|-------------------------4---------------|
D|-----------------------------------------|
A|------------------2--5-2----5-2----------|
E|--------------------------------5-5-2-4--|


Your own ...... personal
e|-----------------------|
b|-----------------------|
G|-----------------------|
D|--------4------------4-|
A|-----------------------|
E|-2--5-2----5-22-5-2----|

 ..Jesus ....
e|-----------------------|
b|-----------------------|
G|-----------------------|
D|--------4------------4-|
A|-----------------------|
E|-2--5-2----5-22-5-2----|

Someone to hear your prayers
e|-----------------------|
b|-----------------------|
G|-----------------------|
D|--------4------------4-|
A|-----------------------|
E|-2--5-2----5-22-5-2----|

   Someone who's there
e|-----------------------------------------|
b|-----------------------------------------|
G|-------------------------4---------------|
D|-----------------------------------------|
A|------------------2--5-2----5-2----------|
E|--------------------------------5-5-2-4--|


Feeling unknown
And you're all alone
Flesh and bone
By the telephone
Lift up the receiver
Ill make you a believer

Take second best
Put me to the test
Things on your chest
You need to confess
I will deliver
You know I'm a forgiver

Reach out and touch faith
Reach out and touch faith

Your own personal Jesus...

Feeling unknown
And you're all alone
Flesh and bone
By the telephone
Lift up the receiver
Ill make you a believer

I will deliver
You know I'm a forgiver

Reach out and touch faith

Your own personal Jesus

Reach out and touch faith
Tap to rate this tab
 
# A B C D E F G H I J K L M N O P Q R S T U V W X Y Z